Life Of Agony - Fears Chords & Tabs

 

Fears Chords & Tabs

Life Of Agony Chords & Tabs

Version: 1 Type: Tab 0 ratings
1 star 2 stars 3 stars 4 stars 5 stars
comments

Fears Tab

Fears

BY LIFE OF AGONY
from album 'ugly'

transcribed by Christian Reindel (creindel@gmx.de)
any questions or corrections- e-mail me

TUNE DOWN ONE WHOLE STEP: Dropped C tuning

Bass intro

Guitar came in                           
D:|----------------------|
A:|----------------------|
F:|----------------------|
C:|-3-3-3-3-3-3-3--------|
G:|-1-1-1-1-1-1-1--------|
C:|----------------------|

   Main riff     4 times                   
D:|--------------------------------|
A:|--------------------------------|
F:|--------------------------------|
C:|--------------------------------|
G:|---------------------3----------|
C:|--0--5--3--0--3^5^3----3--------|

 Verse 1                2 times
D:|------------------------|---------------------------------|
A:|------------------------|---------------------------------|
F:|------------------------|---------------------------------|
C:|--------5-(5)-----------|---------------------------------|
G:|-0-(0)--3-(3)--5-3-0----|--------------------3------------|
C:|-0-(0)---------5-3-0----|--0--5--3--0--3^5^3---3----------|

                            this Part  (2 times)
D:|------------------------|-----------------------------------|
A:|------------------------|-----------------------------------|
F:|------------------------|-----------------------------------|
C:|--------5-(5)-----------|-----------------------------------|
G:|-0-(0)--3-(3)--5-3-0----|--0--0-00--x-x--0-0----------3-----|
C:|-0-(0)---------5-3-0----|--0--0-00--x-x--0-0---3^5^3----3---|
[ Tab from: http://www.guitartabs.cc/tabs/l/life_of_agony/fears_tab.html ]
   Pre-Chorus
D:|------------------------------------|
A:|------------------------------------|
F:|------------------------------------|
C:|---------------------3-3-3-3-3-3----|
G:|--3-(3)--5--7--0-(0)-1-1-1-1-1-1----|
C:|--3-(3)--5--7--0-(0)----------------|

Chorus 4 times
D:|------------------------------------------------------|
A:|------------------------------------------------------|
F:|------------------------------------------------------|
C:|--------------------------------------3-3-3-3-3-3-3---|
G:|--3-3-3-3-5-(5)-5-5-5-5-0-(0)-0-0-0-0-1-1-1-1-1-1-1---|
C:|--3-3-3-3-5-(5)-5-5-5-5-0-(0)-0-0-0-0-----------------|


   Main riff     4 times                   
D:|--------------------------------|
A:|--------------------------------|
F:|--------------------------------|
C:|--------------------------------|
G:|---------------------3----------|
C:|--0--5--3--0--3^5^3----3--------|

   Riff 2 ( 2 times)
D:|----------------------------------|
A:|----------------------------------|
F:|----------------------------------|
C:|----------------------------------|
G:|--0--0-00--x-x--0-0---------3-----|
C:|--0--0-00--x-x--0-0--3^5^3----3---|

   Pre-Chorus
D:|------------------------------------|
A:|------------------------------------|
F:|------------------------------------|
C:|---------------------3-3-3-3-3-3----|
G:|--3-(3)--5--7--0-(0)-1-1-1-1-1-1----|
C:|--3-(3)--5--7--0-(0)----------------|

Chorus  4 times
D:|------------------------------------------------------|
A:|------------------------------------------------------|
F:|------------------------------------------------------|
C:|--------------------------------------3-3-3-3-3-3-3---|
G:|--3-3-3-3-5-(5)-5-5-5-5-0-(0)-0-0-0-0-1-1-1-1-1-1-1---|
C:|--3-3-3-3-5-(5)-5-5-5-5-0-(0)-0-0-0-0-----------------|

D:|---------------------|
A:|---------------------|
F:|---------------------|
C:|---------------------|
G:|-0-0----------3---0--|
C:|-0-0---3^5^3----3-0--|

End
Comments