Life Of Agony - Drained Chords & Tabs

 

Drained Chords & Tabs

Life Of Agony Chords & Tabs

Version: 1 Type: Tab 0 ratings
1 star 2 stars 3 stars 4 stars 5 stars
comments

Drained Tab

Drained

BY LIFE OF AGONY
From album 'ugly'

transcribed by Christian Reindel (creindel@gmx.de)
any questions or corrections- e-mail me

TUNE DOWN ONE WHOLE STEP: Dropped C tuning

    Intro / Chorus riff 2 times
D:|-------------------------------|---------------------------------|
A:|-------------------------------|---------------------------------|
F:|-------------------------------|---------------------------------|
C:|-------------------------------|---------------------------------|
G:|-----3-------------------------|-----5--3------------------3-----|
C:|-0-0---3--0-3^5^3--0--3--5--6--|-0-0-------6--5--3--3^5^3----3---|

    Verse Riff  ( 2 times)
D:|------------------------------------|
A:|------------------------------------|
F:|------------------------------------|
C:|-----------8-8----------------8-8---|
G:|-0--(0)----6-6-----0--(0)-----6-6---|
C:|-0--(0)------------0--(0)-----------|


Chorus Riff 2 times

Verse Riff  2 times
[ Tab from: http://www.guitartabs.cc/tabs/l/life_of_agony/drained_tab.html ]
Interlude Part
D:|------------------|
A:|------------------|
F:|------------------|
C:|------------------|
G:|-5-5-5-5-5--------|
C:|-5-5-5-5-5--------|

   1.Part  (2 times)

    this Part 3 times                  than this        
D:|---------------------------------|---------------------|
A:|---------------------------------|---------------------|
F:|---------------------------------|---------------------|
C:|---------------------------------|---------------------|
G:|--5--5-5-5-1~-1~--3^5^3----------|--1--(1)----3---(3)--|
C:|--5--5-5-5--------------3~-------|--1--(1)----3---(3)--|

  2.Part  3 times             than this = end interlude
D:|--------------------------|----------|
A:|--------------------------|----------|
F:|--------------------------|----------|
C:|--------------------------|----------|
G:|--5--5-5-5-1~-1~-3-3-3-3--|--5--3----|
C:|--5--5-5-5-------3-3-3-3--|--5--3----|


back to Verse Riff  2 times
than Chorus Riff 2 times with guitarsolo
back to Interlude
than Chorus Riff 2 times

D:|------------|
A:|------------|
F:|------------|
C:|------------|
G:|----0-0-----|
C:|----0-0-----|

End.
Comments