Life Of Agony - Damned If I Do Chords & Tabs

 

Damned If I Do Chords & Tabs

Life Of Agony Chords & Tabs

Version: 1 Type: Tab 0 ratings
1 star 2 stars 3 stars 4 stars 5 stars
comments

Damned If I Do Tab

Damned if I do

BY LIFE OF AGONY
From Album 'Ugly'

transcribed by Christian Reindel(creindel@gmx.de)
any questions or corrections- e-mail me
                             
TUNE DOWN ONE WHOLE STEP: Dropped C tuning

 INTRO 

   Riff 1  (2 times) 

  This Part 3 times             than this Part           
D:|-------------------------|---------------------------------|
A:|-------------------------|---------------------------------|
F:|-------------------------|---------------------------------|
C:|-------------------------|---------------------------------|
G:|-------8~----------------|---7-7-7-7----3-3-3-3------------|
C:|--0--7-----7\--3^5^3-----|---7-7-7-7----3-3-3-3-3^5^3------|


   Riff 2  (4 times)
D:|--------------------------------------------------|
A:|--------------------------------------------------|
F:|--------------------------------------------------|
C:|--------------------------------------------------|
G:|--------------------------------------------------|
C:|--0-4~-0-7~-0-4~-0-7~-0-4~-0-7~-0-4~-0-7~-0-0-0---|
                                             . . . 
Verse 1
[ Tab from: http://www.guitartabs.cc/tabs/l/life_of_agony/damned_if_i_do_tab.html ]
  Riff 3   3 times           than this Part 
D:|------------------------|----------------------------|
A:|------------------------|----------------------------|
F:|------------------------|----------------------------|
C:|------------------------|----------------------------|
G:|-0-0-0-0-0-4-4-4-5-5-5--|-7-7-7-7-10-10-10-10-10-----|
C:|-0-0-0-0-0-4-4-4-5-5-5--|-7-7-7-7-10-10-10-10-10-----|

   Riff 4   several times
D:|-------------------------------------|
A:|-------------------------------------|
F:|-------------------------------------|
C:|---------------------5-5^7^5---------|
G:|--8^5-5-5-5--8^5-5-5-----------------|
C:|-------------------------------------|

Chorus

   Riff 1   (2 times)


Verse 2

   Riff 4  several times 

   than   Riff 5  ( 3 times)
D:|------------------------------|------------------------------|
A:|------------------------------|------------------------------|
F:|------------------------------|------------------------------|
C:|------------------------------|------------------------------|
G:|-0-0--0-0-0---0-0--0-0-0--5~--|-0-0--0-0-0---0-0-------------|
C:|-0-0--0-0-0---0-0--0-0-0------|-0-0--0-0-0---0-0--5~---------|


Guitar solo

with Riff 3   3 times           than this Part 
D:|------------------------|---------------------------------|
A:|------------------------|---------------------------------|
F:|------------------------|---------------------------------|
C:|------------------------|---------------------------------|
G:|-0-0-0-0-0-4-4-4-5-5-5--|-7-7-7-7-10-10-10-10-10----------|
C:|-0-0-0-0-0-4-4-4-5-5-5--|-7-7-7-7-10-10-10-10-10----------|

Chorus

Riff 1 ( 2 times)

Outro

Riff 2 ( 6 times)

End.
Comments