Life Of Agony - Angry Tree Chords & Tabs

 

Angry Tree Chords & Tabs

Life Of Agony Chords & Tabs

Version: 1 Type: Tab 0 ratings
1 star 2 stars 3 stars 4 stars 5 stars
comments

Angry Tree Tab

   
Angry by Life of Agony
tabbed by Tommy Snowdown (greensmileybones@hotmail.com) 

Notes: To get the twangy sound on the high notes loosen the fretting
hand just after you have played the notes to mute them. I think that
LOA tune their guitars down 1/2 a step so I have written it down in
that tuning (Eb Ab Db Gb Bb Eb - Low to high) Any mistakes don't
matter cause it sounds good but do tell me about them. I haven't
tabbed the solo yet because I prefer rhythm guitar but I'll get a
friend to do that and post it here later. Majors and minors really
matter so don't try play power chords through out the song. If the
whole thing looks strange and the tab is screwed up copy it into a
word processor and set the font as COURIER 10. Enjoy 

x = right hand mute - string "clicks" 
b = bend to note after
r = release bend
Tuned 1/2 step down : Eb Ab Db Gb Bb Eb 

 Intro
|----7-------4-------2-------5--------7-------4-------2-------5-----|
|----7-------4-------2-------5--------7-------4-------2-------5-----| 
|----8-------4-------3-------6--------8-------4-------3-------6-----|
|--9----x-x6----x-x4----x-x7-----x-x9----x-x6----x-x4----x-x7-------|
|--9----x-x6----x-x4----x-x7-----x-x9----x-x6----x-x4----x-x7-------|
|--7----x-x4----x-x2----x-x5-----x-x7----x-x4----x-x2----x-x5-------|
  
Verse - this section is repeated twice. The timings are best heard on
the CD. Once every line of lyrics
||----7-------4-------2-------5--------7-------4-------2-------5---||
||----7-------4-------2-------5--------7-------4-------2-------5---|| 
||*---8-------4-------3-------6--------8-------4-------3-------6--*||
||*-9----x-x6----x-x4----x-x7-----x-x9----x-x6----x-x4----x-x7----*||
||--9----x-x6----x-x4----x-x7-----x-x9----x-x6----x-x4----x-x7-----||
||--7----x-x4----x-x2----x-x5-----x-x7----x-x4----x-x2----x-x5-----||

Chorus - the "rusty breeze, let me in your casualty" bit - play
around with the chords as you strum them I can't remember how many
times each chord is repeated but listen to the CD and see
||--7-7-7-7-7-7-7-7-4-4-4-4-4-4-4-4-2-2-2-2-3-3-3-3-5-5-5-5-5-5-5-5--
||--7-7-7-7-7-7-7-7-4-4-4-4-4-4-4-4-2-2-2-2-3-3-3-3-5-5-5-5-5-5-5-5-- 
||*-8-8-8-8-8-8-8-8-4-4-4-4-4-4-4-4-3-3-3-3-3-3-3-3-6-6-6-6-6-6-6-6--
||*-9-9-9-9-9-9-9-9-6-6-6-6-6-6-6-6-4-4-4-4-4-4-4-4-7-7-7-7-7-7-7-7--
||--9-9-9-9-9-9-9-9-6-6-6-6-6-6-6-6-4-4-4-4-4-4-4-4------------------
||--7-7-7-7-7-7-7-7-4-4-4-4-4-4-4-4-2-2-2-2-2-2-2-2------------------

--7-7-7-7-7-7-7-7-4-4-4-4-4-4-4-4-2-2-2-2-3-3-3-3-5-5-5-5-5-5-5-5--||
--7-7-7-7-7-7-7-7-4-4-4-4-4-4-4-4-2-2-2-2-3-3-3-3-5-5-5-5-5-5-5-5--||
--8-8-8-8-8-8-8-8-4-4-4-4-4-4-4-4-3-3-3-3-3-3-3-3-6-6-6-6-6-6-6-6-*||
--9-9-9-9-9-9-9-9-6-6-6-6-6-6-6-6-4-4-4-4-4-4-4-4-7-7-7-7-7-7-7-7-*||
--9-9-9-9-9-9-9-9-6-6-6-6-6-6-6-6-4-4-4-4-4-4-4-4------------------||
--7-7-7-7-7-7-7-7-4-4-4-4-4-4-4-4-2-2-2-2-2-2-2-2------------------||

 Bridge - the "and everybody is slipping over the edge" bit. Some
people may call this the chorus but I don't
|----7-------4-------2-------5--------7-------4-------2-------5-----|
|----7-------4-------2-------5--------7-------4-------2-------5-----| 
|----8-------4-------3-------6--------8-------4-------3-------6-----|
|--9----x-x6----x-x4----x-x7-----x-x9----x-x6----x-x4----x-x7-------|
|--9----x-x6----x-x4----x-x7-----x-x9----x-x6----x-x4----x-x7-------|
|--7----x-x4----x-x2----x-x5-----x-x7----x-x4----x-x2----x-x5-------|
[ Tab from: http://www.guitartabs.cc/tabs/l/life_of_agony/angry_tree_tab.html ]
Verse - this section is repeated twice. The timings are best heard on
the CD. Once every line of lyrics
||----7-------4-------2-------5--------7-------4-------2-------5---||
||----7-------4-------2-------5--------7-------4-------2-------5---|| 
||*---8-------4-------3-------6--------8-------4-------3-------6--*||
||*-9----x-x6----x-x4----x-x7-----x-x9----x-x6----x-x4----x-x7----*||
||--9----x-x6----x-x4----x-x7-----x-x9----x-x6----x-x4----x-x7-----||
||--7----x-x4----x-x2----x-x5-----x-x7----x-x4----x-x2----x-x5-----||

Chorus - the "rusty breeze, let me in your casualty" bit - play
around with the chords as you strum them I can't remember how many
times each chord is repeated but listen to the CD and see
||--7-7-7-7-7-7-7-7-4-4-4-4-4-4-4-4-2-2-2-2-3-3-3-3-5-5-5-5-5-5-5-5--
||--7-7-7-7-7-7-7-7-4-4-4-4-4-4-4-4-2-2-2-2-3-3-3-3-5-5-5-5-5-5-5-5-- 
||*-8-8-8-8-8-8-8-8-4-4-4-4-4-4-4-4-3-3-3-3-3-3-3-3-6-6-6-6-6-6-6-6--
||*-9-9-9-9-9-9-9-9-6-6-6-6-6-6-6-6-4-4-4-4-4-4-4-4-7-7-7-7-7-7-7-7--
||--9-9-9-9-9-9-9-9-6-6-6-6-6-6-6-6-4-4-4-4-4-4-4-4------------------
||--7-7-7-7-7-7-7-7-4-4-4-4-4-4-4-4-2-2-2-2-2-2-2-2------------------

--7-7-7-7-7-7-7-7-4-4-4-4-4-4-4-4-2-2-2-2-3-3-3-3-5-5-5-5-5-5-5-5--||
--7-7-7-7-7-7-7-7-4-4-4-4-4-4-4-4-2-2-2-2-3-3-3-3-5-5-5-5-5-5-5-5--||
--8-8-8-8-8-8-8-8-4-4-4-4-4-4-4-4-3-3-3-3-3-3-3-3-6-6-6-6-6-6-6-6-*||
--9-9-9-9-9-9-9-9-6-6-6-6-6-6-6-6-4-4-4-4-4-4-4-4-7-7-7-7-7-7-7-7-*||
--9-9-9-9-9-9-9-9-6-6-6-6-6-6-6-6-4-4-4-4-4-4-4-4------------------||
--7-7-7-7-7-7-7-7-4-4-4-4-4-4-4-4-2-2-2-2-2-2-2-2------------------||


Heavy Bridge -  when they rock out near the end
|-------------------------------------------------------------------|
|-------------------------------------------------------------------| 
|-------------------------------------------------------------------|
|-6-6-6-6---9-9-9-9---------------6-6-6-6---9-9-9-9-----------------|
|-6-6-6-6---9-9-9-9---------------6-6-6-6---9-9-9-9-----------------|
|-4-4-4-4---7-7-7-7--7b9r7--------4-4-4-4---7-7-7-7--7b9r7----------|
 Can you see the world I see,   Everybody slips including...

|-------------------------------------------------------------------|
|-------------------------------------------------------------------| 
|-------------------------------------------------------------------|
|-6-6-6-6---9-9-9-9---------------6-6-6-6---9-9-9-9-----------------|
|-6-6-6-6---9-9-9-9---------------6-6-6-6---9-9-9-9-----------------|
|-4-4-4-4---7-7-7-7--7b9r7--------4-4-4-4---7-7-7-7--7b9r7----------|
 Can you see the world I see,   Everybody slips including...

|-------------------------------------------------------------------|
|-------------------------------------------------------------------| 
|-------------------------------------------------------------------|
|-6-6-6-6---9-9-9-9---------------6-6-6-6---9-9-9-9---------4-4-2-2-|
|-6-6-6-6---9-9-9-9---------------6-6-6-6---9-9-9-9---------4-4-2-2-|
|-4-4-4-4---7-7-7-7--7b9r7--------4-4-4-4---7-7-7-7--7b9----2-2-0-0-|
 Can you see the world I see,   Everybody slips including   me

Solo - no tab yet but these chords underneath in the same rhythm as
the chorus but distorted this time

|--7-7-7-7-7-7-7-7-4-4-4-4-4-4-4-4-2-2-2-2-3-3-3-3-5-5-5-5-5-5-5-5--|
|--7-7-7-7-7-7-7-7-4-4-4-4-4-4-4-4-2-2-2-2-3-3-3-3-5-5-5-5-5-5-5-5--|
|--8-8-8-8-8-8-8-8-4-4-4-4-4-4-4-4-3-3-3-3-3-3-3-3-6-6-6-6-6-6-6-6--|
|--9-9-9-9-9-9-9-9-6-6-6-6-6-6-6-6-4-4-4-4-4-4-4-4-7-7-7-7-7-7-7-7--|
|--9-9-9-9-9-9-9-9-6-6-6-6-6-6-6-6-4-4-4-4-4-4-4-4------------------|
|--7-7-7-7-7-7-7-7-4-4-4-4-4-4-4-4-2-2-2-2-2-2-2-2------------------|

Bridge - the "and everybody is slipping over the edge" bit. Distorted
second time round
|--7-7-----4-4-----2-2-----5-5------7-7-----4-4-----2-2-----5-5-----|
|--7-7-----4-4-----2-2-----5-5------7-7-----4-4-----2-2-----5-5-----| 
|--8-8-----4-4-----3-3-----6-6------8-8-----4-4-----3-3-----6-6-----|
|--9-9--x-x6-6--x-x4-4--x-x7-7---x-x9-9--x-x6-6--x-x4-4--x-x7-7-----|
|--9-9--x-x6-6--x-x4-4--x-x7-7---x-x9-9--x-x6-6--x-x4-4--x-x7-7-----|
|--7-7--x-x4-4--x-x2-2--x-x5-5---x-x7-7--x-x4-4--x-x2-3--x-x5-5-----|

End on
|-7-|
|-7-|
|-8-|
|-9-|
|-9-|
|-7-|
Comments