Life At Last - Angel Wings Chords & Tabs

 

Angel Wings Chords & Tabs

Life At Last Chords & Tabs

Version: 1 Type: Tab 0 ratings
1 star 2 stars 3 stars 4 stars 5 stars
comments

Angel Wings Tab

Artist: Life At Last.
Song: Angel Wings.
this song is in drop c.

------------------|
------------------|
------------------|
------------------|
-0-0-0-10-10-10-0-|
-0-0-0-10-10-10-0-|
 - - -

-------8---6-------------8---6-------|
-6--8---6---6-10---6--8---6---6-10---|
--7--7---7---7------7--7---7---7-----|
---0--0----------0---0--0----------0-|
-------------------------------------|
-------------------------------------|

-------------------------------------------------------|
-------------------------------------------------------|
-------------------------------------------------------|
-------------------------------------------------------|
-8-8-8-8-8-8-0-0-0-10-10-10-8-8-8-8-8-8-0-0-0-10-10-10-|
-8-8-8-8-8-8-0-0-0-10-10-10-8-8-8-8-8-8-0-0-0-10-10-10-|
             - - -                      - - -


-------8---6-------------8---6-------|
-6--8---6---6-10---6--8---6---6-10---|
--7--7---7---7------7--7---7---7-----|
---0--0----------0---0--0----------0-|
-------------------------------------|
-------------------------------------|

-------------------------------------------------------|
-------------------------------------------------------|
-------------------------------------------------------|
-------------------------------------------------------|
-8-8-8-8-8-8-0-0-0-10-10-10-8-8-8-8-8-8-0-0-0-10-10-10-|
-8-8-8-8-8-8-0-0-0-10-10-10-8-8-8-8-8-8-0-0-0-10-10-10-|
             - - -                      - - -
verse 1.

guitar 1.
----------------------------|
----------------------------|
----------------------------|   x2
---------------5p-3p-5h7----|
-----5p---7p----------------|
-0-0----0----0---0--0-------|
 - -    -    -   -  -

-------------------------------------------------------|
-------------------------------------------------------|
-------------------------------------------------------|
-------------------------------------------------------|
-8-8-8-8-8-8-0-0-0-10-10-10-8-8-8-8-8-8-0-0-0-10-10-10-|
-8-8-8-8-8-8-0-0-0-10-10-10-8-8-8-8-8-8-0-0-0-10-10-10-|
             - - -                      - - -
guitar 2.
-------------------------------------|
-------------------------------------|
-----7------7------7------7------7-7-|
-----x------x------x------x------x-x-|
-----5------5------5------5------5-5-|
-0-0----0-0----0-0----0-0----0-0-----|
 - -    - -    - -    - -    - -

-------------------------------------------------------|
-------------------------------------------------------|
-------------------------------------------------------|
-------------------------------------------------------|
-8-8-8-8-8-8-0-0-0-10-10-10-8-8-8-8-8-8-0-0-0-10-10-10-|
-8-8-8-8-8-8-0-0-0-10-10-10-8-8-8-8-8-8-0-0-0-10-10-10-|
             - - -                      - - -

"and you will always take my breat away..."
------------8-----------------------8------------|
----6---8-------8---8h10----6---8-------8---8h10-|
-7-7-7-7-7-7-7-7-7-7-----7-7-7-7-7-7-7-7-7-7-----|
-------------------------------------------------|
-------------------------------------------------|
-------------------------------------------------|
 - - - - - - - - - -     - - - - - - - - - -

"your angel wings, devil tail..."
-----------------------------------------------|
-----------------------------------------------|
-----------------------------------------------|
-888888888-88-88-88-88--888888888-88-88-88-88--|
-888888888-88-88-88-88--888888888-88-88-88-88--|
-888888888-88-88-88-88--888888888-88-88-88-88--|
 ---------              -----------------------|

---------------|
---------------|
---------------|
-3~~~~~2~~~~~h3
-3~~~~~2~~~~~h3
-3~~~~~2~~~~~h3
[ Tab from: http://www.guitartabs.cc/tabs/l/life_at_last/angel_wings_tab.html ]
---------------------|
---------------------|
---------------------|
-00000000-000-00-000-|
-00000000-000-00-000-|
-00000000-000-00-000-|
 -------- --- -- ----|
guitar 1.
---------------------|
---------------------|
---------------------|
-33-0-33-0-22-0-22h3-|
-33-0-33-0-22-0-22h3-|
-33-0-33-0-22-0-22h3-|
    -    -    -
guitar 2.
----------------------|
----------------------|
-1010-1010-99---99-10-|
-xx---xx---xx---xx-x--|
-88-0-88-0-77-0-77h8--|
----0----0----0-------|
    -    -    -

---------------------------------|
---------------------------------|
---------------------------------|
-5555555555555555555555555555555-
-3333333333333333333333333333333-
----------------------------------|
 ---------------------------------|

------------------------------------------------------------------------------|
------------------------------------------------------------------------------|
------------------------------------------------------------------------------|
-0-000-000-000-5-00-5-00-5-0-3-333-333-333-5-00-5-00-5-0-----2-00-2-00-2-0----|   x2
-0-000-000-000-3-00-3-00-3-0-1-111-111-111-3-00-3-00-3-0-3-3-3-00-3-00-3-0----|
-0-000-000-000---00---00---0-----------------00---00---0-3-3---00---00---0----|
   --- --- ---   --   --   -   --- --- ---   --   --   -       --   --   -

--------------|
---------8-10-|
--------------|
-0~-----------|
-0~-----------|
-0~-----------|
         p p

----------------------------|
----------------------------|
----------------------------|   x2
---------------5p-3p-5h7----|
-----5p---7p----------------|
-0-0----0----0---0--0-------|
 - -    -    -   -  -

------------8-----------------------8------------|
----6---8-------8---8h10----6---8-------8---8h10-|
-7-7-7-7-7-7-7-7-7-7-----7-7-7-7-7-7-7-7-7-7-----|
-------------------------------------------------|
-------------------------------------------------|
-------------------------------------------------|
 - - - - - - - - - -     - - - - - - - - - -

-----------------------------------------------|
-----------------------------------------------|
-----------------------------------------------|
-888888888-88-88-88-88--888888888-88-88-88-88--|
-888888888-88-88-88-88--888888888-88-88-88-88--|
-888888888-88-88-88-88--888888888-88-88-88-88--|
 ---------              -----------------------|
guitar 1.
---------------------------------------------|
---------------------------------------------|
---------------------------------------------|
-000000000-00-00-000000000-8-7-8-10-8-7-3-5--|
-000000000-00-00-000000000-8-7-8-10-8-7-3-5--|
-000000000-00-00-000000000-8-7-8-10-8-7-3-5--|
 --------- -- -- ----------------------------|
guitar 2.
---------------------------------------------|
----------------------------6-5-6-8-6-5---5--|
----------------------------------------5----|
-000000000-00-00-000000000-------------------|
-000000000-00-00-000000000-------------------|
-000000000-00-00-000000000-------------------|
 --------- -- -- ----------------------------|

interlude.
-----8~6~
-6~8~6~6~
-7~7~7~7~  {this is what you play. mess around with picking different strings and stuff}
---------|
---------|
---------|

-------------------------------------------|
-------------------------------------------|
-------------------------------------------|
-000000000-00-00-000000000-00-00-000000000-|
-000000000-00-00-000000000-00-00-000000000-|
-000000000-00-00-000000000-00-00-000000000-|
 --------- -- -- --------- -- -- ---------

guitar 1.
------------------|
------------------|
------------------|
-8-7-8-10-8-7-3-5-|
-8-7-8-10-8-7-3-5-|
-8-7-8-10-8-7-3-5-|

guitar 2.
-----------------|
-6-5-6-8-6-5---5-|
-------------5---|
-----------------|
-----------------|
-----------------|
to here some life at last songs, check out www.lifeatlast.com
end.

tabbed by: atom.
Comments