Libido - Poop Chords & Tabs

 

Poop Chords & Tabs

Libido Chords & Tabs

Version: 1 Type: Tab 0 ratings
1 star 2 stars 3 stars 4 stars 5 stars
comments

Poop Tab

intro: e--------------------------------------------------| 2x
       b--------------------------------------------------|
       g--------------------------------------------------|
       d---2---2--2--2--3--3----5--5--5--3-3-3------------|
       a-----3--3--3--3--3--3----5--5--5---3--3-3---------|
       E--------------------------------------------------|

Verse: e-------------------------------------------------------|
       b-------------------------------------------------------|( i dont know )
       g----5-5-5--5------------------2x-----5-----------------|
       d----5-5-5--5----3-3-3--5-5-5---------5--3-3-5-5--------|2x
       a----3-3-3--3----3-3-3--5-5-5---------3--3-3-5-5--------|
       E-------------3--1-1-1--3-3-3------------1-1-3-3--------|
[ Tab from: http://www.guitartabs.cc/tabs/l/libido/poop_tab.html ]
chorus e----------------------------------------------------------|
       b----------------------------------------------------------|
       g----------5-5--2-2----------------------------------------|
       d--3-3-5-5-5-5--2-2-3-3-5-5--------------------------------|
       a--3-3-5-5-3-3--0-0-3-3-5-5--------------------------------|
       E--1-1-3-3----------1-1-3-3--------------------------------|

interlude: e--------------------------------------------------------|
           b------------------2x----------2x------------------------|
           g--5-5-5-----2-2-2---------------5-5--2-2----------------|
           d--5-5-5-----2-2-2----3-3--5-5---5-5--2-2--3-3-5-5-------|
           a--3-3-3-----0-0-0----3-3--5-5---3-3--0-0--3-3-5-5-------|
           E---------3-----------1-1--3-3-------------1-1-3-3-------|


intro:
verse:
chorus:
verse:
chorus
verse: only first part
interlude:
verse:
chorus:
outro (same as verse)
outro?intro

tabbed by danni w
Comments