Libido - Left Behind Chords & Tabs

 

Left Behind Chords & Tabs

Libido Chords & Tabs

Version: 1 Type: Tab 0 ratings
1 star 2 stars 3 stars 4 stars 5 stars
comments

Left Behind Tab

Intro: 2x
e--3--3--3--3----3--3--3--3-----------------------/
b--3--3--3--3----3--3--3--3-----------------------/
g--0--0--0--0----0--0--0--0-----------------------/
d--2--2--2--2----0--0--0--0-----------------------/
a--2--2--2--2----2--2--2--2-----------------------/
E--0--0--0--0----3--3--3--3-----------------------/
/
verse: 7x
e-3-3-3-3---3-3-3-3---------------------------------------/
b-3-3-3-3---3-3-3-3---------------------------------------/
g-0-0-0-0---0-0-0-0---------------------------------------/
d-2-2-2-2---0-0-0-0---------------------------------------/
a-2-2-2-2---2-2-2-2---------------------------------------/
E-0-0-0-0---3-3-3-3---------------------------------------/
[ Tab from: http://www.guitartabs.cc/tabs/l/libido/left_behind_tab.html ]
chorus: 5x
e--0--0---3-3---0-0-0-0-------------------------------------------/
b--1--1---0-0---3-3-0-0-------------------------------------------/
g--0--0---0-0---2-2-0-0-------------------------------------------/
d--2--2---0-0---0-0-2-2-------------------------------------------/
a--3--3---2-2-------2-2-------------------------------------------/
E---------3-3-------0-0-------------------------------------------/

inturlude: 4x
e------0----------0-------0---------0-------------------------------/
b---------0---------0-------0----------0----------------------------/
g--------------------------------0----------------------------------/
d-------------------------------------------------------------------/
a----2---------2----------------------------------------------------/
E--0---------0---------3-------2------------------------------------/

intro
verse
chorus
intro
verse
chorus
inturlude
chorus/outro

tabbed by Danni witoslawski
Comments