Libertines - What Katie Did Chords & Tabs

 

What Katie Did Chords & Tabs

Libertines Chords & Tabs

Version: 1 Type: Bass Tab

What Katie Did Bass Tab

   
----------------------------------------------------------------------
	          what katie did - libertines
----------------------------------------------------------------------

Tabbed By : louis p


Tuning: standard

Verse
[ Tab from: http://www.guitartabs.cc/tabs/l/libertines/what_katie_did_btab.html ]
G|--5-5-0---5-5-0------4------4--2-2----2-2---------------------------|
D|-----------------4-4----4-4--------4------4--55555555-88888888------|
A|--------------------------------------------------------------------|
E|--------------------------------------------------------------------|

Chorus

G|-5-5-0--5-4-3-2-2-2-2-2-2-2-------------0---------------------------|
D|----------------------------5-5-5-5-5-5-----------------------------|
A|--------------------------------------------------------------------|
E|--------------------------------------------------------------------|


| /  slide up
| \  slide down
| h  hammer-on
| p  pull-off
| ~  vibrato
| +  harmonic
| x  Mute note
======================================================================