Libertines - What Became Of The Likely Lads Chords & Tabs

 

What Became Of The Likely Lads Chords & Tabs

Libertines Chords & Tabs

Version: 2 Type: Tab 0 ratings
1 star 2 stars 3 stars 4 stars 5 stars
comments

What Became Of The Likely Lads Tab

   
 
              WHAT BECAME OF THE LIKELY LADS - THE LIBERTINES

IM SORRY THAT IVE NOT TABBED THE SOLO IL DO THAT AT A LATER STAGE 

Standard Tuning

Chords: 

G (3554XX)  
D/A (55777X)
A (577655)
E (X7999X)
Bm (799777)
D (X5777X)
Dm (XX0231)
B7 (797877)
E* (X6888X)
C# (X4666X)
C (X3555X)
B (X2444X)
A* (X04422)
A6 (X02222)


    G  D/A          A
e|-------------------------------------------------------------------------|
B|----------7--------------------------------------------------------------|
G|--4---7---7-------6------6---6-------------------6-----------------------|
D|--5---7---7---5---7------7---7---7---7-----------5---7---5---------------|
A|--5---5---5---5---7------7---7---7---7---7---7---7---7---7---------------|
E|--3---5---5---5---5------5---5-----------5---5---5---5---5---------------|

                G  D/A                                                   G
e|-------------------------------------------------------------------------|
B|----------------------7--------------------------------------------------|
G|----------6---4---7---7------------6---6-----------------6---------6---4-|
D|--7---5---7---5---7---7---5--7-----7---7--7---7----------5--7--5---7---5-|
A|--7---7---7---5---5---5---5--7-----7---7--7---7---7---7--7--7--7---7---5-|
E|--5---5---5---3---5---5---5--5-----5---5----------5---5--5--5--5---5---3-|
                
                                                            E
   D/A          A      Please don't get me wrong see, I forgive you with a  
e|-------------------------------------------------------------------------|
B|------7------------------------------------------------------------------|
G|--7---7-------6--------------6-----6----------------------9--------------|
D|--7---7---5---7--------------5-----7----------------------9--------------|
A|--5---5---5---7--------------7-----7----------------------7--------------|
E|--5---5---5---5--------------5-----5----------------------7--------------|

                       Bm            D   E
  song, we'll call the likely lads.
e|-------------------------------------------------------------------------|
B|--------------9-------7--------------7---9---9---------------------------|
G|--------------9-------7--------------7---9---9---------------------------|
D|-------------------------------------7---9---9---------------------------|
A|-----------------------------------5-------------------------------------|
E|-----------------------------------5-------------------------------------|

               A                         E       
  But         if its left to you i no exactly what you'd do with all the 
e|-------------------------------------------------------7-----------------|
B|-9--9----------------------------------9--------------------------9------|
G|-9--9--------6--------------------6----9---------------------------------|
D|-9--9--------7--------------------7----9---------------------------------|
A|-------------7--------------------7----7---------------------------------|
E|-------------5--------------------5--------------------------------------|

    Bm            D   E             D                    Dm
  dreams we had                 cos blood runs thicker oh we're as thick as 
e|--7--------------------------------------------------5-5-----------------|
B|--7---------------7--7--9---------7------------------6-6-----------------|
G|--------------7---7--7--9---------7------------------7-7-----------------|
D|--------------9---7--7--9---------7------------------7-7-----------------|
A|--------------9-------------------5------------------5-5-----------------|
E|--------------7----------------------------------------------------------|
                              A                                        D
   thieves you know          if its important to you, its important to me 
e|-------------------5-----------------------------------------------------|
B|-------------------5-------------------------------------------------7---|
G|-------------------6---6---------------------------------------------7---|
D|-------------------7---7---------------------------------------------7---|
A|-------------------7---7-----------------------------7---------------5---|
E|-------------------5---5-----------------------------7------7---5--------|

                      Dm         B7                      E
  i tried to make you see   but you dont want to know
e|-------------------5---------------7---------7---------------------------|
B|-------------------6---------------7---------7-----------9-----9---------|
G|-------------------7---------------8---------8-----------9-----9---------|
D|-------------------7---------------7---------7-----------9-----9---------|
A|-------------------5---------------9---------9-----------7-----7---------|
E|-----------------------------------7---------7---------------------------|
                       A                                  E
               if you pipe all summer long then get for given in a song
e|-------------------------------------------------------------------------|
B|-----9------------------------------------2------------0-----------------|
G|-----9------0-----------------------------2------------1-----------------|
D|-----9------0-------2---------------------2---2--------2-----------------|
A|-----7------0-------0-------------------------0--------------------------|
E|------------0------------------------------------------------------------|
                Bm                       D 
  well thats a touch my lad 
e|--------------2-----2---------2------------------------------------------|
B|--------------3-----3---------3------------------------------------------|
G|--------------4-----4---------4--------7---7---7-------------------------|
D|--------------4-----4---------4--------7---7---7-------------------------|
A|-2----2----2--2-----2-----2-------2----5---5---5-------------------------|
E|-0----0----0--------------2-------2--------------------------------------|
    E                 A                                     E
   they sold all my rights to all the wrongs but when they needed the
e|-------------------------------------------------------------------------|
B|-9----9-------------2-----------------------2--------------0-------------|
G|-9----9-------------2-----------------------2--------------1-------------|
D|-9----9-------------2-----------------------2---2----2-----2-------------|
A|-7----7-------------0---------------------------0----0-------------------|
E|-------------------------------------------------------------------------|
                                   Bm
     the new songs        welcome back i said   
e|-------------------------0-----------2---------2-------------------------|
B|-------------------------0-----------3---------3---------7---7---7-------|
G|-------------------------1-----------4---------4---------7---7---7-------|
D|-------------------------2-----------4---------4---------7---7---7-------|
A|--------------------2-------2----2---2-----2--------2----5---5---5-------|
E|--------------------0-------0----2---------2--------2--------------------|

[ Tab from: http://www.guitartabs.cc/tabs/l/libertines/what_became_of_the_likely_lads_tab_ver_2.html ]
e|-------------------------------------------------------------------------|
B|----9---9----------------------------------------------------------------|
G|----9---9----------------------------------------------------------------|
D|----9---9----------------------------------------------------------------|
A|----7---7----------------------------------------------------------------|
E|-------------------------------------------------------------------------|
     D                   Dm       
    blood runs thicker oh we're as thick as 
e|-----------------------5-------------------------------------------------|
B|----7------------------6-------------------------------------------------|
G|----7------------------7-------------------------------------------------|
D|----7------------------7-------------------------------------------------|
A|----5------------------5-------------------------------------------------|
E|-------------------------------------------------------------------------|
                     A                                           D
   thieves you know     thats important to you, its important to me 
e|-------------------------------------------------------------------------|
B|----------------------------------------------------------------7--------|
G|-------------------6--------------------------------------------7--------|
D|-------------------7--------------------------------------------7--------|
A|-------------------7---------------------------7----------------5--------|
E|-------------------5---------------------------7-----7----5--------------|

                          Dm         B7
  i tried to make you see   but you dont want to know
e|-------------------5-----------7---7----7-------7------------------------|
B|-------------------6-----------7---7----7-------7------------------------|
G|-------------------7-----------8---8----8-------8------------------------|
D|-------------------7-----------7---7----7-------7------------------------|
A|-------------------5-----------9---9----9-------9------------------------|
E|-------------------------------7---7----7-------7------------------------|
                         A                              E
                       please dont get me wrong see i forgive you 
e|-------------------------------------------------------------------------|
B|--9---9---9------------------------------------2---------0---------------|
G|--9---9---9----0-------------------------------2---------1---------------|
D|--9---9---9----0-------------------------------2--2------2---------------|
A|--7---7---7----0------2---------------------------0----------------------|
E|---------------0------0--------------------------------------------------|
                                 Bm                    D
    you in a song we'll call the likely lads
e|--------------------------------2--2------------2------------------------|
B|--------------------------------3--3------------3------7---7---7--9--9---|
G|--------------------------------4--4------------4------7---7---7--9--9---|
D|--------------------------------4--4------------4------7---7---7--9--9---|
A|------------------2-----2---2---2--2--------2-------2--5---5---5--7--7---|
E|------------------0-----0---0---------------2-------2--------------------|
   A                                E
   we all bought the ones we taught em all we wrote the songs thats 
e|-------------------------------------------------------------------------|
B|--2-----------------------2-----------0----------------------------------|
G|--2-----------------------2-----------1----------------------------------|
D|--2-----------------------2--2-----2--2----------------------------------|
A|--0--------------------------0-----0--------------------------2----------|
E|--------------------------------------------------------------0----------|
                    Bm                     D             E
      filled with dreams we have
e|-----0------------------2-----------2------------------------------------|
B|-----0------------------3-----------3-------7---7---7----9---9-----------|
G|-----1------------------4-----------4-------7---7---7----9---9-----------|
D|-----2------------------4-----------4-------7---7---7----9---9-----------|
A|------------2-----2-----2--------2-----2----5---5---5----7---7-----------|
E|------------0-----2--------------2-----2---------------------------------|
       D                  Dm                        
     blood runs thicker oh we're as thick as thieves you know 
e|------------------------5------------------------------------------------|
B|-----7------------------6------------------------------------------------|
G|-----7------------------7------------------------------------6-----------|
D|-----7------------------7------------------------------------7-----------|
A|-----5------------------5------------------------------------7-----------|
E|-------------------------------------------------------------5-----------|
      A                                        D
     if its important to you, its important to me 
e|-------------------------------------------------------------------------|
B|----------------------------------------------7--------------------------|
G|----------------------------------------------7--------------------------|
D|----------------------------------------------7--------------------------|
A|-----------------------------7----------------5--------------------------|
E|-----------------------------7---7----5----------------------------------|

                         Dm      B7
  i tried to make you see   but you dont want to know
e|-------------------5---------------7-----7------7------------------------|
B|-------------------6-----------4---7-----7------7------------------------|
G|-------------------7-----------4---8-----8------8------------------------|
D|-------------------7-----------4---7-----7------7------------------------|
A|-------------------5-----------2---9-----9------9------------------------|
E|-----------------------------------7-----7------7------------------------|
                             A           E           D
                             oh what became of the likely   lads?
e|---------------------------5--------------------------8-7-7--5--5--8-----|
B|-9---9--9-----9---9--9-----5----------9-----------7---8-7-7--------8-----|
G|-9---9--9-----9---9--9-----6----------9-----------7----------------------|
D|-9---9--9-----9---9--9-----7----------9-----------7----------------------|
A|-7---7--7-----7---7--7-----7----------7-----------5----------------------|
E|---------------------------5---------------------------------------------|
                       A                  E             D
                                  what became of the dreams    we    had?
e|--7--5--8---0--------5------------------------------------8--7--5-5---8--|
B|-----5--5---0--------5-----------------9--------------7---8--7--5-5---8--|
G|------------0--------6-----------------9--------------7------------------|
D|----------------7----7-----------------9--------------7------------------|
A|----------------7----7-----------------7--------------5------------------|
E|---------------------5---------------------------------------------------|
                         A                 E                D
                         oh   what    be came   of   for  ev er?
e|---8--8--8--8----------5-5-5-5-5-5-5-5---------------------8--7--5--5--8-|
B|---8--8--8--8----------5-5-5-5-5-5-5-5-9-9-9-9-9-9-9-9--7--8--7--5--5--8-|
G|--------------0--------6-6-6-6-6-6-6-6-9-9-9-9-9-9-9-9--7----------------|
D|--------------0--0--0--7-7-7-7-7-7-7-7-9-9-9-9-9-9-9-9--7----------------|
A|-----------------0--0--7-7-7-7-7-7-7-7-7-7-7-7-7-7-7-7--5----------------|
E|-----------------0--0--5-5-5-5-5-5-5-5-----------------------------------|
                         A                 E               D
                        oh      what be  came    of  for ev er?
e|--7--5--8--7--5--------5--5-5-5-5-5-5-----------------------8--7--5--5-8-|
B|--7--5--8--7--5--------5--5-5-5-5-5-5--9-9-9-9-9-9-9-7-7-7--8--7-------8-|
G|-----------------------6--6-6-6-6-6-6--9-9-9-9-9-9-9-7-7-7---------------|
D|-----------------------7--7-7-7-7-7-7--9-9-9-9-9-9-9-7-7-7---------------|
A|-----------------7--7--7--7-7-7-7-7-7--7-7-7-7-7-7-7-5-5-5---------------|
E|-----------------5--5--5--5-5-5-5-5-5------------------------------------|


         we'll never know
e|--7--5--8--7--5--x-------------------------------------------------------|
B|-------------------------------4--x--4--------4--------4------4----------|
G|-------------------5--------------------------------------------------0--|
D|----------------------------------------------------------------------0--|
A|----------------------------------------------------------------------0--|
E|----------------------------------------------------------------------0--|


 Guitar 2
e|-----------------------------5-------------------------------------------|
B|---------------------------------------8---7------5----------------------|
G|-------------------------6-----------------6-------------------6--0---0--|
D|-------------------------7--------------------7----------------7--0---0--|
A|-------------------------7--------------------7----------------7--0---0--|
E|-------------------------5--------------------5----------------5--0---0--|
Comments