Libertines - What A Waster Chords & Tabs

 

What A Waster Chords & Tabs

Libertines Chords & Tabs

Version: 3 Type: Tab 0 ratings
1 star 2 stars 3 stars 4 stars 5 stars
comments

What A Waster Tab

it's a great song, on the libertines first album, up the bracket. i'm pretty sure this 
all correct, it sounds fine to me!

E------------------------------------------------------------|
A----0-------------------------------------------------------|
D---------2--------------------------------------------------|
G----------------------2-------------------------------------|
B-------------1----0-----------------------------------------|
E--------------------------3----2----------------------------|

Then do,
[ Tab from: http://www.guitartabs.cc/tabs/l/libertines/what_a_waster_tab_ver_3.html ]
E----1-----------------------------------------------------------|
A----3 (im not sure how many times)------------------------------|
D----3-----------------------------------------------------------|
G----------------------------------------------------------------|
B----------------------------------------------------------------|
E----------------------------------------------------------------|

Then,

E----3-------------------------------------------------------------|
A----5 (again, i'm not sure how many times)------------------------|
D----5-------------------------------------------------------------|
G------------------------------------------------------------------|
B------------------------------------------------------------------|
E------------------------------------------------------------------|

And finally strum,

E------------------------------------------------------------|
A------------------------------------------------------------|
D----2----2---------2----------------------------------------|
G----2----2---------2----------------------------------------|
B----1----1----1----1----------------------------------------|
E------------------------------------------------------------|

That's all folks!
i love busted.
floss xXx
Comments