Libertines - Vertigo Chords & Tabs

 

Vertigo Chords & Tabs

Libertines Chords & Tabs

Version: 1 Type: Bass Tab

Vertigo Bass Tab

   
uning: Standard (E A D G)

Comes in after seven seconds.

Intro

G|-----------8----10-8----------------10----12-10-------------------|
D|------8-10---10------10-----8-10-12----12-------12----------------|
A|-8-11--------------------10---------------------------------------|
E|------------------------------------------------------------------|

G|------------------------------8----10-8-------------------------|
D|---------6---8-6---------8-10---10------10----------------------|
A|-----6-8---8-----6--8-11----------------------------------------|
E|-6-9------------------------------------------------------------|

Verse (1)

G|-----------8----10-8----------------10----12-10-----------------|
D|------8-10---10------10-----8-10-12----12-------12--------------|
A|-8-11--------------------10-------------------------------------|
E|----------------------------------------------------------------|
[ Tab from: http://www.guitartabs.cc/tabs/l/libertines/vertigo_btab.html ]
G|----------------------------------------------------------------|
D|----------------------------------------------------------------|
A|--------567--888-8-8-86-----------------------------------------|
E|-666-6-6---------------8----------------------------------------|

Verse (2)

G|----------------------------------------------------------------|
D|----------------------------------------------------------------|
A|-888-8-8-789--101010-10-10-108-----------567--888-8-8-568-------|
E|------------------------------10--666-6-6-----------------------|

Verse (3)

G|-----------------------------10---------------------------------|
D|------------------1010-11-12----12-10--888-8-8------------------|
A|-888-8-8-789--1010-----------------------------567--888-8-8-087-|
E|----------------------------------------------------------------|

Chorus

G|----------------------------------------------------------------|
D|----------8/1313131313131313----------------------8/13----------|
A|-66666666--------------------13\---------567-6666------13\------|
E|---------------------------------666-6-6------------------------|

G|--------------------------------|
D|--------------------------------|
A|---------8----11----9-8---------|
E|-666-6-6---5--------------------|