Libertines - Tomblands Chords & Tabs

 

Tomblands Chords & Tabs

Libertines Chords & Tabs

Version: 1 Type: Bass Tab

Tomblands Bass Tab

Song: Tomblands
Band: The Libertines
Album: The Libertines
Tabbed by: Scott Reid

Tuning: EADG

Intro: (no bass)

Verse:
|-------------------|
|-------------------|
|------555----------|
|-7777-----55555555-| x4

Pre-chorus:
|-----------------|
|-7---5----3----1-|
|-----------------|
|-----------------|

Chorus:
|---------------------------------------|
|---------------------------------------|
|------33-55-------33-55------33-55-----|
|-0000--------0000-------0000-------0~--|

Post-chorus:
|------------------|
|-9988776655443300-|
|------------------|
|------------------|
[ Tab from: http://www.guitartabs.cc/tabs/l/libertines/tomblands_btab.html ]
Verse:
|-------------------|
|-------------------|
|------555----------|
|-7777-----55555555-| x2

Bridge:
|----------------|
|----------------|
|-22-------------|
|-----3-22222222-|x4

Solo:
|-------7--------|
|----9------7--7-|
|-----55---------|
|-77------55-55--| x2

|-----------7-----------------|
|-----9------------7--------7-|
|------5~---------------------|
|-7~---------5~------5~-------|x2

|-------------------|
|-------------------|
|------555----------|
|-7777-----55555555-| x6

Pre-chorus:
|-----------------|
|-7---5----3----1-|
|-----------------|
|-----------------|

Chorus:
|-----------------|
|-------1010-1212-|
|-77777-----------|
|-----------------|x3

END