Libertines - Time For Heroes Chords & Tabs

 

Time For Heroes Chords & Tabs

Libertines Chords & Tabs

Version: 1 Type: Bass Tab 0 ratings
1 star 2 stars 3 stars 4 stars 5 stars
comments

Time For Heroes Bass Tab

the libertines - time for heroes

tabbed by Dominic Richardson

bass kicks in on '...stylish'

|--------------------------------------------------------------|
|-------4-4-4-------------------------4-4-4--------------------|
|-5-5-5-------2-2-2-------------5-5-5---------------0-0-0-0----| x2
|-------------------3-3-3-3-3-3-------------3-3-3-3------------|

'oh how i cherish you my love'

|----------------------------------------------------|
|----------------------------------------------------|
|---------0-0-0-0------------------------------------|
|-3-3-3-3--------------------------------------------|

chorus

|----------------------------------------------------|
|---------------4-4-4--------------------------------|
|---------5-5-5-------------------0-0-0-0-0-0--------|
|-3----4--------------3-3-3-3-3-3--------------------|

2nd verse
[ Tab from: http://www.guitartabs.cc/tabs/l/libertines/time_for_heroes_btab.html ]
|--------------------------------------------------------------|
|-------4-4-4-------------------------4-4-4--------------------|
|-5-5-5-------2-2-2-------------5-5-5---------------0-0-0-0----| x2
|-------------------3-3-3-3-3-3-------------3-3-3-3------------|

|----------------------------------------------------|
|----------------------------------------------------|
|---------0-0-0-0------------------------------------|
|-3-3-3-3--------------------------------------------|

repeat chorus


3rd verse

|--------------------------------------------------------------|
|-------4-4-4-------------------------4-4-4--------------------|
|-5-5-5-------2-2-2-------------5-5-5---------------0-0-0-0----| x1
|-------------------3-3-3-3-3-3-------------3-3-3-3------------|

|----------------------------------------------------|
|----------------------------------------------------|
|---------0-0-0-0------------------------------------|
|-3-3-3-3--------------------------------------------|


repeat 3rd verse, end on d

any additions or corrections welcome - dom_rich@hotmail.com
Comments