Libertines - Tell The King Chords & Tabs

 

Tell The King Chords & Tabs

Libertines Chords & Tabs

Version: 1 Type: Tab 0 ratings
1 star 2 stars 3 stars 4 stars 5 stars
comments

Tell The King Tab

   
-------------------------------------------------------------------------------
			     SONG NAME - Band Name
-------------------------------------------------------------------------------
Tabbed by: Cuddly Ball Of Fun
Email:fraz_muhoney@hotmail.com

Tuning:standard

This tab is from after Pete says "i got a little secret for ya", and its only the intro, 
i just got annoyed with nobody tabbing it.
[ Tab from: http://www.guitartabs.cc/tabs/l/libertines/tell_the_king_tab.html ]
e|-----10--10--10-----------10--10--10------------10-10-10--------10--10-----|
B|-12--12--12--12--0---10---10--10--10-----0---8--8--8---8---7----7---7------|
G|---------------------------------------------------------------------------|
D|---------------------------------------------------------------------------|
A|---------------------------------------------------------------------------|
E|---------------------------------------------------------------------------|

e|-10-------------8-----------------8-----8-------8----------------8---8-----|
B|-7-----------8------8-------------8-----8------------8-----------8---8-----|
G|----------9-------------9---9------------------------------9-----9---9-----|
D|---------------------------------------------------------------------------|
A|---------------------------------------------------------------------------|
E|---------------------------------------------------------------------------|


| /  slide up
| \  slide down
| h  hammer-on
| p  pull-off
| ~  vibrato
| +  harmonic
| x  Mute note
===============================================================================
Comments