Libertines - Narcissist Chords & Tabs

 

Narcissist Chords & Tabs

Libertines Chords & Tabs

Version: 1 Type: Tab 0 ratings
1 star 2 stars 3 stars 4 stars 5 stars
comments

Narcissist Tab

Intro:
 E----------------------------------------------|
 B----------------------------------------------|
 G-9-10-9-10-9-10-10-9-10--5--5--3--5--5--5--3--|
 D-------------------------5--5--3--5--5--5--3--|
 A-------------------------3--3--1--3--3--3--1--|
 E----------------------------------------------|
Main Riff:
 ------------------------------------------------------------------------------|
 -------------------------------------------------------------------0--0--0--0-|
 ----------------------------3-5--5-3---5-3------------------------10-10-10-10-|
 -----3-5--5-3---5-3------5-----------5-----5-------5-7--7-5-7-5---------------|
 --5-----------5-----5--3------------------------7---------------7-------------|
 3---------------------------------------------5-------------------------------| x2
[ Tab from: http://www.guitartabs.cc/tabs/l/libertines/narcissist_tab.html ]
Verse:
 --    --    --    --|
 --    --    --    --|
 --    5-    --    7-|
 5-    5-    7-    7-|
 5-    3-    7-    5-|
 3-    --    5-    --| VERSE x2

Chorus:
 --    6-    --    -3--3--1--3---------|
 --    8-    --    -3--3--1--3---------|
 --    8-    --    -5--5--3--5---------|
 5-    8-    8-    -5--5--3--5---------|
 5-    6-    8-    -3--3--1--3---------|
 3-    6-    6-    -3--3--1--3 CHORUS--| x2

Bridge:
 ------------------------------------------|
 -------------------------------0--0--0--0-|
 --------------5-3-------------10-10-10-10-|
 ----5-3-----5-----5-----7-5---------------|
 --5-----5-3-----------7-----7-------------|
 3-------------------5---------------------|


Hit the chords as quickly as you can, keep with the song.

Song Structure

Intro
Main riff x2
Verse x2
Chorus x2
Bridge (Second guitar plays bridge, whilst first guitar plays main riff)
Chorus x2
Solo
Outro
Comments