Libertines - Music When The Lights Go Out Chords & Tabs

 

Music When The Lights Go Out Chords & Tabs

Libertines Chords & Tabs

Version: 2 Type: Chords 0 ratings
1 star 2 stars 3 stars 4 stars 5 stars
comments

Music When The Lights Go Out Chords

   
-------------------------------------------------------------------------------
	THE LIBERTINES - Music When The Lights Go Out
-------------------------------------------------------------------------------
Tabbed by: Sean Cook
Email: sean@cookyonline.net

Tuning: standard

Chords Used:
[ Tab from: http://www.guitartabs.cc/tabs/l/libertines/music_when_the_lights_go_out_crd_ver_2.html ]
    C   Cmaj7   Am   Am7   Dm   G   F   D   F7
E|---0-----0-----0-----0-----1---3---1---2---1---|
B|---1-----0-----1-----1-----3---3---1---3---1---|
G|---0-----0-----2-----0-----2---0---2---2---2---|
D|---2-----2-----2-----2-----0---0---3---0---1---|
A|---3-----3-----0-----0---------2---3-------3---|
E|-------------------------------3---1-------1---|


Introduction, verse & chorus:

   C   Cmaj7   Am   Am7   Dm   G

Repeated over and over until the faster bit:

   F   C   F   C   F   C   G   G-D

   F   C   F   C   F   C   G   G-D-F (*)

(*) - this F sounds better as F7, if you can hit it...also, the final time it goes G-D-G.

Finish on C.



| /  slide up
| \  slide down
| h  hammer-on
| p  pull-off
| ~  vibrato
| +  harmonic
| x  Mute note
===============================================================================
Comments