Libertines - Libertines Chords & Tabs

 

Libertines Chords & Tabs

Libertines Chords & Tabs

Version: 1 Type: Tab 0 ratings
1 star 2 stars 3 stars 4 stars 5 stars
comments

Libertines Tab

   
-----------------------------------------------------------------------------------------
The Libertines - The Libertines
-----------------------------------------------------------------------------------------
TRACKLIST: 
1) Can't Stand Me Now
2) Last Post on the Bugle
3) Don't Be Shy
4) The Man Who Would Be King
5) Music When the Lights Go Out
6) Narcissist
7) The Ha Ha Wall
8) Arbeit Macht Frei
9) Campaign of Hate
10) What Katie Did
11) Tomblands
12) The Saga
13) Road to Ruin
14) What Became of the Likely Lads?

Hey, I decided to tab out this whole album (with both guitars so your band can play) cos it's
great. I reckon it is all pretty much correct cos I got the second guitar from tab book and
the first guitar I figured out myself. Anyway, please rate this cos it took me ages to do.
Enjoy!!

Comments, Queries or Suggestions Email me: candidate_1066@hotmail.com
-----------------------------------------------------------------------------------------
Track 01 - Can't Stand Me Now
Tuning   - Standard (EADGBe)
Extras   - For gtr 1 outro, the chords gtr 2 plays are above the tab. Also to some this
might look familiar because I put just this tab on the UG site aswell.
Tabbed By- Nedelko
Comments, Queries or Suggestions Email me: candidate_1066@hotmail.com

Chords Used:
A(5,7,7,6,5,5) 
B(7,9,9,8,7,7) 
E(0,7,9,9,9,x) 
A7((x,0,2,0,2,0) 
C#m(9,11,11,9,9,9) 
A*(x,0,14,14,14,x) 
A5(0,2,x,x,x,x)
E*(x,x,6,4,5,4)
A**(x,0,7,6,5,5) 
E**(x,x,14,13,12,x)

Verse:
E                      
An ending fitting for the start,
      A*
You twisted and tore our love apart.
                     B
Your light fingers through the dark,
A                         B
Shattered the lamp into darkness it cast us.
E    
No, you've got it the wrong way round
A
You shut me up and blamed it on the brown
C#m                     B
Cornered the boy kicked out at the world
A                       B    
The world kicked back a lot fucking harder now.

Pre-Chorus
E
If you wanna try, if you wanna try,
C#m
There's no worse you could do
E
I know you lie, I know you lie
C#m
I'm still in love with you.
B                       A
Can't take me anywhere, I'd take you anywhere
B                          A  
You can't take me anywhere, well I can't take you anywhere
F#m                     B
I'll take you anywhere you wanna go.

Chorus:
E                       A5
You can't stand me now, you can't stand me now
E*                       A
You can't stand me now, you can't stand me now, you can't stand me now.

Verse:
E                            A**     C#m               B
Have we enough to keep it together? Or do we just keep on pretending
A                     B
And hope our luck is never ending
E                                             A**
You tried to pull the wool, I wasn't feeling too clever
    C#m                B              A          B
And you take all that they're lending, until you needed mending now.

Chorus:
A                      E
You can't stand me now, you can't stand me now
                       A**
You can't stand me now, you can't stand me now
                       E
You can't stand me now, you can't stand me now,
                       A**                         E**
You can't stand me now, No you can't stand me now
                       A*
You can't stand me now______________________



-----------------------------------------------------------------------------------------
Lead Parts
-----------------------------------------------------------------------------------------

Elec. Gtr 1 Intro:

e|--0--0--0--0--0--0--0----------16------------------16---------|
B|--16-17-17-17-16-17-17------17-17----17----17--17--17---------|
G|------------------------18--------18----18-----18--18---------|
D|--------------------------------------------------------------|
A|--------------------------------------------------------------|
E|--------------------------------------------------------------|

e|---16-------16--------------16----16----------16--------------|
B|--------------17----------17--------17-----17---17--17--------|
G|----------------18------18------------18----------18----------|
D|--------------------------------------------------------------|
A|--------------------------------------------------------------|
E|--------------------------------------------------------------|

e|---16-16-16-16-16-16-16-16-16-16-x-16-x-x-x-16-x--------------|
B|17----------17----17-----------------------------x-17-x-x-----|
G|18------------------------------------------------------------|
D|--------------------------------------------------------------|
A|--------------------------------------------------------------|
E|--------------------------------------------------------------|

e|--------------------------------------------------------------|
B|-17-x-x-17-x-x-17-x-x-17-x-17-x-x-17-x-17-x-x-17-x-x-17-x-----|
G|--------------------------------------------------------------|
D|--------------------------------------------------------------|
A|--------------------------------------------------------------|
E|--------------------------------------------------------------|

e|--------------------------------------------------------------|
B|-17-x-x-17-x-x-17-x-x-17-x-17-x-x-17-x-17-x-x-17-x-x-17-x-----|
G|--------------------------------------------------------------|
D|--------------------------------------------------------------|
A|--------------------------------------------------------------|
E|--------------------------------------------------------------|

e|--------------------------------------------------------------|
B|-17-x-x-17-x-x-17-x-17-x-x-17-x-x-17-17-x-x-17-x-17-x-17-17---|
G|--------------------------------------------------------------|
D|--------------------------------------------------------------|
A|--------------------------------------------------------------|
E|--------------------------------------------------------------|

e|----------------------------------------0---------------------|
B|-16-17-x-17-x-17-x-17-16-17-x-17-x-17-17-16-17-x-17-x-17-x-17-|
G|--------------------------------------------------------------|
D|--------------------------------------------------------------|
A|--------------------------------------------------------------|
E|--------------------------------------------------------------|

e|--------------------------------------------------------------|
B|-16-17-17-17p16-17-17-16--------------------------------------|
G|--------------------------------------------------------------|
D|--------------------------------------------------------------|
A|--------------------------------------------------------------|
E|--------------------------------------------------------------|

Elec. Gtr 2 Intro

e|---------5-------------------------7--------------------------|
B|---------------5----------------7--------7-----------9--------|
G|--6------------------6-----8----8------------8h9-----9--------|
D|--7------------------------9----9------------9-------9--------|
A|--7------------------------9-------------------------7--------|
E|--5------------------------7-------------------------0--------|

e|----------------------------------------------------------------|
B|----------------------------------------------------------------|
G|----------------------------------------------------------------|
D|----------------------------------------------------------------|
A|----------------------------------------------------------------|
E|-12-12-12-12-12-12-12-12-12-12-12-12-12-12-12-12-12-12-12-12-12-|

e|----------------------------------------------------------------|
B|----------------------------------------------------------------|
G|----------------------------------------------------------------|
D|----------------------------------------------------------------|
A|-------0--0--0--0--0--0--0--0--0--0--0--0--0--0--0--0--0--0--0--|
E|-12-12-12-12-12-12-12-12-12-12-12-12-12-12-12-12-12-12-12-12-12-|

e|----------------------------------------------------------------|
B|----------------------------------------------------------------|
G|----------------------------------------------------------------|
D|----------------------------------------------------------------|
A|-0--0--0--0--0--0--0--0--0--------------------------------------|
E|-12-12-12-12-12-12-12-12-12-------12-12-12-12-12-12-12-12-12-12-|

e|-0------------------------0------------------------------0--------|
B|-------12-------12-----------------12-------12-----------12-------|
G|-13-14----13h14----13h14--13-13h14----13h14----13--13h14----13h14-|
D|------------------------------------------------------------------|
A|------------------------------------------------------------------|
E|------------------------------------------------------------------|

e|-------0--------0---------0--0---0--0---0--0---0--0---------------|
B|-------12-------12--------12-12--12-12--12-12--12-12--------------|
G|-13h14----13h14----13h14--13-13--14-13--14-13--13-13--------------|
D|------------------------------------------------------------------|
A|------------------------------------------------------------------|
E|------------------------------------------------------------------|

e|-0---0--0--0---0--0---0--0---0--0--0--0---0--0---0--0---0--0---0--|
B|-12--12-12-12--12-12--12-12--12-12-12-12--12-12--12-12--12-12--12-|
G|-13--14-13-14--14-13--14-----14-13-13-13--14-13--14-13--14-13--14-|
D|------------------------------------------------------------------|
A|------------------------------------------------------------------|
E|------------------------------------------------------------------|

e|-0--0--0----------------------------------------------------------|
B|-12-12-12----------0---0-------------9-9-9-9-9---------9-9\2--2-2-|
G|-14-13-13----------0---0-------9-9---9-9-9-9-9---------9-9\0--0-0-|
D|------------0---0--0---0-------9-9-9-9-9-9-9-9---9-9-9-9-9\2--2-4-|
A|------------0---0---------0----7-7-9-7-7-7-7-7---7-9-7-7-7\0--0-0-|
E|--------------------------0---------------------------------------|

e|---------------------------------9-----------7-----------5--------|
B|-2-2-2----2---2-2-2-2---------------9-----------7--------5--------|
G|-0-0-0----0---0-0-0-0---------9--------9--8-----8-----6----6------|
D|-2-2-2----2---2-4-2-2---------------------9--------9--7-------7/9-|
A|-0-0-0----0---0-0-0-0-----0---------------------------------------|
E|------------------------------------------------------------------|

e|--7-7-x-7-x-7-7---------------------------------------------------|
B|--7-7-x-7-x-7-7-9-------------------------------------------------|
G|--8-8-x-8-x-8-8-9-------------------------------------------------|
D|--9-9-x-9-x-9-9-9-------------------------------------------------|
A|------------------------------------------------------------------|
E|------------------------------------------------------------------|

Elec. Gtr 1 Outro
  C#m                 B        A          B              E
e|-0--0--0--0--0--0--0--0--0--0-----0--0--0--0--0--0--0------------|
B|-17-17-17-17-17-17-16-17-17-16h17-19-19-19-17-16-17-16-17h19-17--|
G|-----------------------------------------------------------------|
D|-----------------------------------------------------------------|
A|-----------------------------------------------------------------|
E|-----------------------------------------------------------------|
      A                                       C#m
e|-------------------------------------------16-16-16----16-16-16--|
B|--16-17-19-17-16-16-17-------17------17----17-17-17----17-17-17--|
G|-----------------------18-18----18-18--18--18-18-18-18-----------|
D|-----------------------------------------------------------------|
A|-----------------------------------------------------------------|
E|-----------------------------------------------------------------|
   B                     A                B                 E   
e|-16-16-16-x-16-16-16-x-x-16-x-x-16-16-16-x-x-16-16-x-x-16-16-----|
B|-17-17-17-x-17-17-17-x-x-17-x-x-17-17-17-x-x-17-17-x-x-17-17-----|
G|-18-18-18-x-18-18-18-x-x-18-x-x-18-18-18-x-x-18-18-x-x-18-18-----|
D|-----------------------------------------------------------------|
A|-----------------------------------------------------------------|
E|-----------------------------------------------------------------|

-----------------------------------------------------------------------------------------
Track 02 - Last Post on the Bugle
Tuning   - Standard (EADGBe)
Extras   - 
Tabbed By- Nedelko
Comments, Queries or Suggestions Email me: candidate_1066@hotmail.com

Chords Used: 
Gm(3,5,5,3,3,3) 
F(1,3,3,2,1,1)
Bb(x,1,3,3,3,x)
F*(x,8,10,10,10,x)
Bb*(6,8,8,7,6,6) 
Eb(x,6,8,8,8,x)
D(x,5,7,7,7,x) 
Bb6(x,1,3,3,3,3) 
G5(x,x,5,x,3,3) 
G(3,5,5,4,3,3)

Verse:
Gm            F       
If I have to go, 
Bb         D
I will be thinking of your love.
Gm                     F         Bb
Oh, somehow you'll know, you will know.
D
I'm thinking of your love

Chorus:
Cm*                            F*
And slyly they whispered her away,
                     Bb6
As I played the last post on the bugle
Gm                 Cm*                            F8
I hear them say "Oh, that boy's no different today"
    Gm
Except in every single way, it's a price to pay.

Verse:
Gm            F       
If I have to go, 
Bb         D
I will be thinking of your love.
Gm                     F         Bb
Oh, somehow you'll know, you will know.
D
I'm thinking of your love

Chorus:
Cm*                F*        Bb6
I was carried away caught up in an affray
         Gm
As they led him away
          Cm*                   F*               Gm    
He sang " We'll meet again someday you know my boy there's a price to pay"

Verse:
Gm            F       
If I have to go, 
Bb         D
I will be thinking of your love.
Gm                     F         Bb
Oh, somehow you'll know, you will know.
D
I'm thinking of your love

Interlude:
Gm                    Cm*
Inside I felt so alone. 
                F*                     Bb*
Locked in a room waiting for kingdom come
               G5   Gm                   Cm*
Though I felt elated I felt like I was scum

Chorus:
F*                             Bb
I was carried away, caught up in an affray
        Gm  
As they led him away, He sang:
Cm*                    F*           Gm
We'll meet again someday, oh my boy, oh there's a price to pay
            Cm*              F*
Feels like I've never been away,
                 Bb                      Gm
though it's been longer than I could possibly say.
Cm*                       F*
I've been wandering the night
      Bb             Gm
I'm glad to see we're still tight.
Cm*                      F*
The bonds that tie a man are tight,
Bb                 G
Yet we do what we do
G                   
Ritual habituality , all through the night.

-----------------------------------------------------------------------------------------
Lead Parts
-----------------------------------------------------------------------------------------
Intro:

e|-6--6--6--6--5--3-| Gtr 1 plays that 11 times while guitar 2 plays these chords in 
B|-3--3--3--3--3--3-| this order: Gm,Cm,F,Bb,Gm,Cm*,F*,Bb*
G|------------------|
D|------------------|
A|------------------|
E|------------------|

Gtr 1 plays the first bar in unison with gtr 2 playing the second bar.
e|-6--6--6--6--6--6------------------------------------------------------|
B|-------------3--3--3/6-8-8-8-8-8-8-8-6/8-8-8-8-8-8-8-6/8-8-8-8-8-8-8-8-|
G|-----------------------0-0-0-0-0-0-0-----0-0-0-0-0-0-----0-0-0-0-0-0-0-|
D|-----------------------------------------------------------------------|
A|-----------------------------------------------------------------------|
E|-----------------------------------------------------------------------|

e|-----------------------------------------------------------------------|
B|-----------------------------------------------------------------------|
G|-------5--5--5--5--5--5--5-5-5-5-5-5-5-5-------------------------------|
D|-5--5--5--5--5--5--5--5--5-5-5-5-5-5-5-5-5-5-5-5-5-5-5-5-5-5-5-5-5-5-5-|
A|-------------------------6-6-6-6-6-6-6-6-----------------6-6-6-6-6-6-6-|
E|-----------------------------------------------------------------------|

Bridge:

Gtr 1

e|-----------------------------------------------------------------------|
B|-8/15-15-15-13-13-11-11-11-11-11-10-10-10-8-8-8-8-8-6-6-6-6-6-8-8-8-10-|
G|------------------------0--0--0--0--0--0--0-0-0-0-0-0-0-0-0-0-0-0-0-0--|
D|-----------------------------------------------------------------------|
A|-----------------------------------------------------------------------|
E|-----------------------------------------------------------------------|

e|-----------------------------------------------------------------------|
B|-10-10-11-11-15-15-15-13-13-13-11-11-11-11-11-10-10-10-8-8-8-8-8-6-6-6-|
G|-0--0--0--0--0--0--0--0--0--0--0--0--0--0--0--0--0--0--0-0-0-0-0-0-0-0-|
D|-----------------------------------------------------------------------|
A|-----------------------------------------------------------------------|
E|-----------------------------------------------------------------------|

e|-----------------------------------------------------------------------|
B|-8-8-8-8-8-8-8-8-6/8-8-8-8-8-8-8-8-6/8-8-8-8-8-8-8-8-6/8-8-8-8-8-8-8-8-|
G|-0-0-0-0-0-0-0-0-----0-0-0-0-0-0-0-----0-0-0-0-0-0-0-----0-0-0-0-0-0-0-|
D|-----------------------------------------------------------------------|
A|-----------------------------------------------------------------------|
E|-----------------------------------------------------------------------|

For the first two bars of the bridge gtr 2 plays these chords: G,Bb,F,Gm,Bb,F
and then for the third bar plays this this:

e|-----------------------------------------------------------------------|
B|-----------------------------------------------------------------------|
G|-----------------------------------------------------------------------|
D|-3/5--5-5-5-5-5-5-5-5-5-5-5-5-5-5-1/5-5-5-5-5-5-5-5-5-5-5-5-5-5-5-5-5--|
A|--------------------6-6-6-6-6-6-6---------------------6-6-6-6-6-6-6-6--|
E|-----------------------------------------------------------------------|

-----------------------------------------------------------------------------------------
Track 03 - Don't Be Shy
Tuning   - Standard (EADGBe)
Extras   - Full Bend=B Half Bend=b
Tabbed By- Nedelko
Comments, Queries or Suggestions Email me: candidate_1066@hotmail.com

Chords Used: 
E7(x,7,9,7,9,x) 
E7sus4(x,7,9,7,10,x) 
A(5,7,7,6,5,5) 
D7sus4(x,5,7,7,8,8)
D7(x,5,7,5,7,x)
A7(5,7,5,6,5,5)
D7*(x,0,0,2,1,2)
D(,x,5,7,7,7,x) 
E(0,2,2,1,0,0) 
F#(2,4,4,3,2,2)
B(7,9,9,8,7,7) 
E7sus2(x,7,9,7,7,7) 
A9(x,12,11,12,12,12)

Chorus: E7sus4  E7
A    D7sus4    A7         D7sus4    A7
Ah, don't be shy, don't be shy
               D7         
For if you are shy for tomorrow,
                                   A     D7sus4  A7
You will be shy for one thousand days, hey,
A     D7sus4   A7         D7sus4    A7
Don't be shy, don't be shy,
               D7        
Don't let the tide of your sorrow,
                                   A     D7sus4  A7
Drown your nights and flood your days.

Verse: 
               D7*
But still it's better to be shy than to be

A drunken old queen who's always 
                  A   D7sus4  A
Got to get his away

Pre-Chorus:
A
But don't be coy with me
D                   A
I'm too clever to follow you down
               D
Into the dark and stormy weather,
A                          D
Brackets wider now so what's your pleasure
E
Swallow your pride but please 

Don't be shy.

Chorus:
A    D7sus4    A7         D7sus4    A7
Ah, don't be shy, don't be shy
               D7         
For if you are shy for tomorrow,
                                   A     D7sus4  A7
You will be shy for one thousand days, hey,
A     D7sus4   A7         D7sus4    A7
Don't be shy, don't be shy,
               D7        
Don't let the tide of your sorrow,
                                   A     D7sus4  A7
Drown your nights and flood your days.


Bridge:
A7            
And now's your time to shine,
F#
Dance and hear your song
           B
Or you may wake up one day

In the last chance saloon
      E7
To find your last chance 

Has been and gone

Chorus: 
A    D7sus4    A7         D7sus4    A7
Ah, don't be shy, don't be shy
               D7         
For if you are shy for tomorrow,
                                   A     D7sus4  A7
You will be shy for one thousand days, hey,


-----------------------------------------------------------------------------------------
Lead Parts
-----------------------------------------------------------------------------------------
 Elec. Gtr 1 Intro

e|------------------------------------------------------------------|
B|--9--9--x--10-10-9--x-x-9--9--10--9-------------------------------|
G|--7--7--x--7--7--7--x-x-7--7--7---7-------------------------------|
D|--9--9--x--9--9--9--x-x-9--9--9---9-------------------------------|
A|--7--7------------------------------------------------------------|
E|--------------------------------------0---------------------------|

Elec. Gtr 1 Part after the first chorus and before first verse.

e|-----------5--5---------8--x--x-----5--x--------------------------|
B|-----------5--5---------8--x--x-----5--x-7--7--7------------------|
G|-----7-----6--6------------x--x-----6--x-7--7--7----6--6--6--6--6-|
D|-----5-----7--7------------x--x--7--7--x-7--7--7----7--7--7--7--7-|
A|--7--7-----7--7-----7------------7--7------------x--7--7--7--7--7-|
E|--5-----------------5----------------------------x--5--5--5--5--5-|

Elec. Gtr 2 Part after the first chorus and before first verse.
(Make this last as long as the bar above)
e|----------------------------------------------8-------------------|
B|----------------------------------------------8-------------------|
G|---6-6-6-6-6--------6--6---------------6--6---6--6----------------|
D|-----------7---7----7-----7------------7---------7----------------|
A|--7--------7---7----7-----7------------7---------7----------------|
E|--5------------5----5-----5-------5--------------5----------------|

Elec. Gtr 1 Interlude
Gtr's 1 and 2 play the interlude parts in unison.                          
e|----------------8---|---------|------------------|----------------|
B|----------------8---|---------|------------------|----------------|
G|--6--6--6--6----7-6-|---6-----|------------------|----------------|
D|--7--7--7--7------7-|---7-----|------------------|----------------|
A|--7--7--7--7------7-|---7-----|------------------|----------------|
E|--5--5--5--5------5-|---5-----|------------------|----------------|

Elec. Gtr 2 Interlude

e|---12---------------|---------|---------------7--|----------------|
B|---12---10--10/9----|---------|-----9-10--9---7--|-9--10--9--7--7-|
G|---12---------------|---------|-----------7---7--|-7--7---7--7--7-|
D|--------------------|---------|--9------------9--|-9--9---9--9--9-|
A|--------------------|---------|--7---------------|-----------7--7-|
E|--------------------|---------|------------------|----------------|

Elec. Gtr 1 Interlude Part 2

e|--------------------|--------------------|--------------15----15--|
B|--------------------|--------------------|--------------14----14--|
G|--------------------|--------------------|--------------12----12--|
D|--------------------|--------------------|--------------14----14--|
A|--------------------|--------------------|------------------------|
E|--------------------|--------------------|------------------------|

Elec. Gtr 2 Interlude Part 2 

e|------12---12---12--|---12-12-12-12-12---|---12---12----12----12--|
B|--12--12---12---12--|---12-12-12-12-12---|---12---12----12----12--|
G|--12--12---12---12--|---12-12-12-12-12---|---12---12----12----12--|
D|--11--11---11---11--|---11-11-11-11-11---|---11---11----11----11--|
A|--12--12---12---12--|---12-12-12-12-12---|---12---12----12----12--|
E|--------------------|--------------------|------------------------|

Elec. Gtr 1 Interlude Part 3

e|--------------------|-----------15---15--|----------x-x-x-x-x-x-x-|
B|--------------------|------14---14---14--|----------x-x-x-x-x-x-x-|
G|--------------------|------12---12---12--|----------x-x-x-x-x-x-x-|
D|--------------------|--14--14---14---14--|----------x-x-x-x-x-x-x-|
A|--------------------|--12--12------------|------------------------|
E|--------------------|--------------------|------------------------|

Elec. Gtr 2 Interlude Part 3

e|--12-12-12-12-12--0-|--12--12---12---12--|12-12-12-12-12-12-12-12-|
B|--12-12-12-12-12--0-|--12--12---12---12--|12-12-12-12-12-12-12-12-|
G|--12-12-12-12-12--0-|--12--12---12---12--|12-12-12-12-12-12-12-12-|
D|--11-11-11-11-11--0-|--11--11---11---11--|11-11-11-11-11-11-11-11-|
A|--12-12-12-12-12----|--12--12---12---12--|12-12-12-12-12-12-12-12-|
E|--------------------|--------------------|------------------------|

Elec. Gtr 1 Interlude Part 4

e|------15--x-15---15-|----15-15-15--x-x--15-15--x-x--15-15--x-x----|
B|------14--x-14---14-|----14-14-14--x-x--14-14--x-x--14-14--x-x----|
G|------12--x---------|--------------x-x---------x-x---------x-x----|
D|--14--14--x---------|--------------x-x---------x-x---------x-x----|
A|--12----------------|---------------------------------------------|
E|--------------------|---------------------------------------------|

Elec. Gtr 2 Interlude Part 4

e|--12--12----12---12-|---------------12-12-12-12-12-12-12-12-12----|
B|--12--12----12---12-|---------------12-12-12-12-12-12-12-12-12----|
G|--12--12----12---12-|---------------12-12-12-12-12-12-12-12-12----|
D|--11--11----11---11-|---------------11-11-11-11-11-11-11-11-11----|
A|--12--12----12---12-|---------------12-12-12-12-12-12-12-12-12----|
E|--------------------|---------------------------------------------|

Gtr. Solo 

e|----5-5-5--5-5-5--8--8--8---------------5---5--5--x--8--8----5----|
B|--5-5-5-5--5-5-5--8--8--8---------------5---5--5--x--8--8----5----|
G|--6-6-6-6--6-6-6--7--7--7---------------6---6--6--x--7--7----6----|
D|--7-7-7-7--7-7-7--7--7--7---------------7---7--7--x--7--7----7----|
A|----------------------------x--7---------------------------x-7----|
E|----------------------------x-----0--0---------------------x---0--|

e|------------------------------------------------------------------|
B|--8-8----8--------------------------------------------------------|
G|--7-7----7----------5-----------4-5--5----------------------------|
D|---------7------7-7------7-7-7--5-7--7--7-7-7-7-7-7-7-7-7-7-7-7-7-|
A|------0----0-0--0-0----0---0-0----------0-0-0-0-0-0-0-0-0-0-0-0-0-|
E|------------------------------------------------------------------|

e|------------------------------------------------------------------|
B|------------------------------------------------------------------|
G|-7b-7b-7b-7b--------------------------------7b-7b-7b-7b-----------|
D|---------------7-7-7-7-7-7-7-7-7-7--7-7-7-7---------------7-7-7-7-|
A|-------------0-0-0-0-0-0-0-0-0-0------------------------0-0-0-0-0-|
E|---------------------------------5--5-5-5-5-----------------------|

e|-------------------------------15-15---15-------------------------|
B|----------14--14-x-14-14-14-14-15-15---15--x--x-14-14--x--x-14----|
G|----------12--12-x-12-12-12-12-------------x--x-12-12--x--x-12----|
D|-7-7-7-7--14--14-x-14-14-14-14-------------x--x-14-14--x--x-14----|
A|-0-0-0-0----------------------------------------------------------|
E|----------------------------------------------------------------0-|

e|--------------------------------------x-x-x-----------------------|
B|-14--14--x--x--14--x---15---15-----0--x-x-x-14-14-x-x-14-14-------|
G|-12--12--x--x--12--x---------------0--x-x-x-12-12-x-x-12-12----7b-|
D|-14--14--x--x--14--x------------------------14-14-x-x-14-14-------|
A|--------------------------------0---------------------------------|
E|---------------------0---------------------------------------0----|

e|------------------------------------------------------------------|
B|------------------------------------------------------------------|
G|--7----6-7-6--6---------6--6-------------7b----7------------------|
D|-------x-x-x--7---------------7-----------------------------------|
A|-----0-0-0-0--7---------------------------------------------------|
E|------------------------------------------------------------------|

-----------------------------------------------------------------------------------------
Track 04 - The Man Who Would Be King
Tuning   - Standard (EADGBe)
Extras   - 
Tabbed By: Nedelko 
Comments, Queries or Suggestions Email me: candidate_1066@hotmail.com

Chords Used:
E5(0,2,2,4,x,x) 
A(x,0,2,2,1,0) 
Cmaj7(x,3,2,0,0,0)
D(x,x,0,2,3,2) 
E(0,2,2,0,0,0) 
Dm/E(0,x,2,2,3,1) 
Em7(0,2,2,0,3,3) 
C9(x,3,2,0,3,3) 
Em*(0,7,9,0,0,0)

Verse:

I've been told if you want to make it in this game,
                                    Cmaj7     D
Gotta have the luck, gotta have the look to make what.
E5                                    
I would quite like to make it through the night,
                                    Cmaj7
My heart beats slow fast don't feel right
                      D        Em
With a sleight of hand, I might die.

What about you over there, well,        
                                  Cmaj7
D'ya think I care? Well, I know you know
D               E5
I know you know I know.

Chorus:
                   
And to the man who would be king,
                   Cmaj7    D
I will say only one thing,
E5          Dm/E
And to the man who would be king,
                  Cmaj7     D
I will say only one thing,
Em                            Cmaj7     D
La, la, la, la, la, la, la, la, la, la, la, la, la,
E5                                   Cmaj7     D   
La, la, la, la, la, la, la, la, la, la, la, la, la.

Bridge: 
Em                            Cmaj7
I lived my dream today, and I lived it yesterday.
        D                                      Em7
And I have it lived it for tomorrow, ah, don't look at me that way
                                C9
I heed the words you say but my heart has gone astray.
            D
We watched friendships slip away,
            Em7
Well it wasn't supposed to be that way. I lived my dream today. 
    C9                               D
I lived it yesterday. And I'll be living yours tomorrow,
Em7
Anything else to say?
                               C9
I lived my dream today, and I lived it yesterday,
             D                             Em7
And I'll be living yours tomorrow so don't look at me that way.

Verse:

What about you Nancy, my dear? What about you Nancy, my dear?
                                 Cmaj7            D              E5
What will you do when she comes here? Aw, she'll kill me then

I don't wanna kill me.

Outro:
Cmaj 7         D          Cmaj7         D
Perish the day when they heed what you say x4

They'll take you away, they won't like what you say x2
Cmaj 7       D  Cmaj7          D
Take you away, so come what may. I'll never stay, I'll never stay.


-----------------------------------------------------------------------------------------
Lead Parts
-----------------------------------------------------------------------------------------

Elec. Gtr 1 Intro
                                               Am
e|---------------------------------------------12------------12--12-|
B|--------------------1---12------10---10--12-----15--12--15--------|
G|--4--4-----4--4-----2---12--12------------------------------------|
D|--2--2-----2--2-----2---------------------------------------------|
A|--2--2-----2--2-----0---------------------------------------------|
E|--0--0-----0--0---------------------------------------------------|
                                Cmaj7                      D
e|--12--12----------------------------------------------------------|
B|----------15--13--12------12--8--8--8--8-------------12--0-0--0---|
G|----------------------12------------9--9-----11--11------0-0--0-4-|
D|------------------------------------------9--12----------0-0--0-2-|
A|----------------------------------------------------------------2-|
E|----------------------------------------------------------------0-|

e|------------------------------------------------------------------|
B|------------0------------------------0------------------0---------|
G|----4----4--0-----4-4-4----4---4---4-0---4-4-4-4-4-4--4-0-4-4-4-4-|
D|----2----2--0-----2-2-2----2---2---2-0---2-2-2-2-2-2--2-0-2-2-2-2-|
A|----2-------0--x---------x-----------0------------------0---------|
E|----0-------0--x---------x----------------------------------------|

Gtr 1: Solo 

e|------------------------------------------------------------------|
B|--3--3--3/5--5--5--5p3---5p3---5p3---5p3-5p3-5p3-5p3-3-5-5p3-5p3--|
G|----------------------4-----4-----4-------------------------------|
D|------------------------------------------------------------------|
A|------------------------------------------------------------------|
E|------------------------------------------------------------------|

Gtr 2: Solo 

e|------------------------------------------------------------------|
B|------------------------------------------------------------------|
G|------------------------------------------------------------------|
D|------------------------------------------------------------------|
A|------------------------------------------------------------------|
E|------------------------------------------------------------------|

Gtr 1: Solo (contd.)

e|------------------------------------------------------------------|
B|-5p3---5p3---5p3---5p3---5p3-5p3-5p3---5p3---5p3--5p3-5p3-5p3-----|
G|----4-----4-----4-----4-------------4-----4-----4------------4----|
D|------------------------------------------------------------------|
A|------------------------------------------------------------------|
E|------------------------------------------------------------------|

Gtr 2: Solo (contd.)

e|------------------------------------------------------------------|
B|---------------------------------12---12---12---------------------|
G|-----------------------14--14-14---14---14---14-12-11-12-14-12-11-|
D|------------------------------------------------------------------|
A|------------------------------------------------------------------|
E|------------------------------------------------------------------|

Gtr 1: Solo (contd.)

e|------------------------------------------------------------------|
B|-5/7--8--7--8--7--8--10--8--7--8--7-------------------------------|
G|-------------------------------------9--9-9-0-9-0-9-0-9-0-9-0-9-0-|
D|------------------------------------------------------------------|
A|------------------------------------------------------------------|
E|------------------------------------------------------------------|

Gtr 2: Solo (contd.)

e|------------------------------------------------------------------|
B|-------0-----------8-8--8-8--8------------------------------------|
G|-9--7--0--9--7--5--9-9--9-9--9------4-----4----------4---0---0----|
D|--------------------------------0-0-2-----2----------2---0---0----|
A|--------------------------------0-0-2-----2----------2---0---0----|
E|--------------------------------0-0-0-----0----------0---0---0----|

Gtr 1: Solo (contd.)

e|------------------------------------------------------------------|
B|-9-0-9-0-9-0-9-0-9-0-9-0-9-0-9-0-9-0------------------------------|
G|------------------------------------------------------------------|
D|------------------------------------------------------------------|
A|------------------------------------------------------------------|
E|------------------------------------------------------------------|

Gtr 2: Solo (contd.)

e|------------------------------------------------------------------|
B|------------------------------------------------------------------|
G|------------------------------4----4------------------------------|
D|-2--0--2--0--2-----------2----2----2------------------------------|
A|------------------------------2----2------------------------------|
E|------------------------------0----0------------------------------|

Outro

e|------------------------------------------------------------------|
B|6h7--5--5---------------------------------------------------------|
G|-----------7--5--7--5/3--4--5p4--2--4--2--0--2--4--5--4--5/7--5-7-|
D|------------------------------------------------------------------|
A|------------------------------------------------------------------|
E|------------------------------------------------------------------|

e|------------------------------------------------------------------|
B|------------------------------------------------------------------|
G|-7/9--7--9--6/7--5--5--4--5--4--2--0--2--4--2--4--5--4--5/7--5--7-|
D|------------------------------------------------------------------|
A|------------------------------------------------------------------|
E|------------------------------------------------------------------|

e|------------------------------------------------------------------|
B|------------------------------------------------------------------|
G|-7/9--7--9/11--9--11--12--11--9--11--9--11--15/16--16-16h17-16p14-|
D|------------------------------------------------------------------|
A|------------------------------------------------------------------|
E|------------------------------------------------------------------|

e|------------------------------------------------------------------|
B|------------------------------------------------------------------|
G|-16--14--12--14--12--12--11--12--11--9--11--9\7--9--7--9p7--9--11-|
D|------------------------------------------------------------------|
A|------------------------------------------------------------------|
E|------------------------------------------------------------------|

e|------------------------------------------------------------------|
B|------------------------------------------------------------------|
G|-12--11--9--11--9--11--12--14--12--14--16--14--12--14--12--10--12-|
D|------------------------------------------------------------------|
A|------------------------------------------------------------------|
E|------------------------------------------------------------------|

e|------------------------------------------------------------------|
B|------------------------------------------------------------------|
G|-12--11--12--11--9--7--9--7--9--7--5--5--4\2--4--2--0-------------|
D|-------------------------------------------------------4h5p4--2--0|
A|------------------------------------------------------------------|
E|------------------------------------------------------------------|

e|------------------------0----------0--0---------------------------|
B|---------------------0-------------0--0---------------------------|
G|--2------------9--0----------------0--0---------------------------|
D|------------9----------------------9--9---------------------------|
A|---------7-------------------------7--7---------------------------|
E|------0----------------------------0--0---------------------------|

-----------------------------------------------------------------------------------------
Track 05 - Music When the Lights Go Out
Tuning   - Standard (EADGBe)
Extras   - Full Bend=B Half Bend=b. I tried my best with the acoustic part but I might
have got the rhythm a little wrong, but I reckon it shoud be easy enough to understand
by listening to the record.
Tabbed By- Nedelko 
Comments, Queries or Suggestions Email me: candidate_1066@hotmail.com

Chords Used:
C(x,3,2,0,1,0) 
Em/B(x,2,2,0,0,0) 
A(x,0,2,2,1,0)
C/G(3,x,2,0,1,0) 
Dm7(x,x,0,2,1,1)
F(1,3,3,2,1,1)
Cmaj7(x,3,2,0,0,0)
C7(x,3,2,3,1,0)
Fmaj9/C(x,3,3,0,1,0)

Verse:
       C      Em/B           Am     Cm/G            Dm7
Is it cruel or kind not to speak my mind and to lie to you,
              G
Rather than hurt you?
           C            Em/B            Am        C/G
Well I'll confess all of my sins after several large gins.
                  Dm7                        G
But still I'll hide from you, hide what's inside from you.
         C         Em/B            Am             C/G
And the alarm bells ring when you say your heart still sings
                 Dm7                          G
When you're with me. Oh won't you please forgive me?

Chorus:
                        C      Em/B
I no longer hear the music.
       Am    C/G      Dm7
Oh no, no, no, no, no, no.

Verse:
G                           C             Em/B
And all the memories of the pubs and the clubs,
             Am         C/G               Dm7
And the drugs and the tubs we shared together
                    G
Will stay with me forever.
            C             Em/B           Am        C/G
But all the highs and the lows and the two's and the afro's.
               Dm7
They left me dizzy 
                          G
Oh won't you please forgive me?

Chorus:
                     C         Em/B
I no longer hear the music.
      Am     C/G      Dm7
Oh no, no, no, no, no, no,

Bridge:
                              F            C
Well I no longer hear the music when the lights go out,
F                    C
Love goes cold in the shades of doubt.
      F                 Dm7               G
The strange fate in my mind is all too clear.
F                 C                F                 C
Music when the lights come on, the girl I thought I knew is gone.
F         Dm7                G
With her my heart it disappears

Chorus: 
                     C         Em/B
I no longer hear the music.
Am      C/G            Dm7
Oh no, no, no, no, no, no.

Verse:
G                       C           Em/B
All the memories of the fights and the nights and the blue lights
Am       C/G              Dm7                            G
Oh, the kites we flew together, I thought they'd fly forever.
            C             Em/B            Am           C/G
And all the high's and the lows, and the two's and the afro's,
              Dm7                          G
They left me dizzy. Won't you please forgive me?

Chorus:
                      C   Em/B Am        C/G     
I no longer hear the music; I no longer hear the music, no.
(Gtr Solo) G              G                     C       Em/B
I no longer hear the music; I no longer hear the music.
G                       C    Cmaj7
Well, I no longer hear the music.

-----------------------------------------------------------------------------------------
Lead Parts
-----------------------------------------------------------------------------------------

Acoustic Gtr 1

e|-0--0--0--0----0--0---0--0--0--0------0---------------------------|
B|-1--1--1--1----0--0---0--0--0--0------1--1--1---------------------|
G|-0--0--0--0----0--0---0--0--0--0--2---2--2--0---0--0-------0--2---|
D|-2--2--2--2----2--2---2--2--2--0--2---2--2--0---0--2--0h2--0--0---|
A|-3--------------------------------0-------------------------------|
E|------------------------------------------------------------------|

e|-1--1--1--------------------3--3--3---3----------0----0--0--0--0--|
B|-1--1--1---1----------0-----3--3--3---3----------1----1--1--0--0--|
G|-2--2--0---0--2--0h2--0-----0--0--0---0----------0----0--0--0--0--|
D|----------------------0--------0--0---0----------2----2--2--2--2--|
A|--------------------------------------------0h2--3----------3-----|
E|-------------------------3---------------3------------------------|

e|-0--0--0--0--0------0--------------------------1--1--1------------|
B|-0--0--0--0--0------1--1--1--------------------1--1--0--1---------|
G|-0--0--0--0--0-2----2--2--0--0--0-------0--2---2--2--0--0--2--0h2-|
D|-2--2--2--2--2-2----2--2--0--0--2--0h2--0--0----------------------|
A|-3-------------0--------------------------------------------------|
E|------------------------------------------------------------------|

e|-------3--3--3---------3--0---------------------------------------|
B|-0-----3--3--3---------3--0---------------------------------------|
G|-0-----0--0--0---------0--0---------------------------------------|
D|-0--0-----0--0---------0------------------------------------------|
A|----2-----------2-------------------------------------------------|
E|----4-----------3--3----------------------------------------------|

Elec. Gtr 2 Intro

e|----------------|
B|----------------|
G|-2--3--4--5--14-| x3 then the words enter.
D|----------------|
A|----------------|
E|----------------|

Elec. Gtr 2 Bridge:

e|------------------------------------------------------------8-----|
B|-------------8----8--8-----------------8------8------8---------11-|
G|-------------8----8--8--------10b--10--8------8------8------------|
D|------8--10---------------10--------------10-----10-----10--------|
A|-8/10-------------------------------------------------------------|
E|------------------------------------------------------------------|

e|-8-----------11h13--13-13-13--14--15-----15--14-------------------|
B|--------------------13-13-13--14--15-----15--14-------------8-----|
G|----11p10-8-------------------------------------------------8-----|
D|-------------------------------------------------------8-10----10-|
A|-------------------------------------------------8h10-------------|
E|------------------------------------------------------------------|

e|--------------------------------8------8------------x-13-13-13-13-|
B|-8----8----8------8------8---------11-----------------------------|
G|-8-10b-10--8------8------8---------------11p10-8------------------|
D|--------------10-----10-----10-------------------10---------------|
A|------------------------------------------------------------------|
E|------------------------------------------------------------------|

e|-x--15-------15--14-----------------------------------------------|
B|----15-------15--14-----------------------------------------------|
G|------------------------------------------------------------------|
D|------------------------------------------------------------------|
A|------------------------------------------------------------------|
E|------------------------------------------------------------------|

-----------------------------------------------------------------------------------------
Track 06 - Narcissist
Tuning   - Standard (EADGBe)
Extras   - Full Bend=B Half Bend=b
Any comments, queries or suggestions email me: candidate_1066@hotmail.com

Chords Used:
C(8,10,10,9,8,8)
Bb(6,8,8,7,6,6)
G(3,5,5,4,3,3) 
C*(x,8,10,10,10,x)
A(5,7,6,6,5,5) 
D(x,5,7,7,7,x) 
Eb(x,6,8,8,8,x)
Bm(x,2,4,4,3,2) 
F#(2,4,4,3,2,2)
F(1,3,3,2,1,1)
Bb(x,1,3,3,3,x)

Verse: D
G                                     C*
Professionally trendy, in the glow of Clapham sun.
                   A                       D
Oh, there's a life after work and it can be such fun
         G                   C*
You see all your models in magazines and on the walls.
        A                               D
Well you wanna be just like them cos they're so cool.

Chorus:
            G         Eb
They're just narcissists,
     Bb                        C    Bb  C   C    Bb  C  
Well wouldn't it be nice to be Dorian Gray, just for a day.
             G        Eb
They're just narcissists,
Bb                         C    Bb  C  C    Bb  C
Ooh, what's so great to be Dorian Gray everyday.

Bridge:
Bm               F#                    G               C*
Were living in a looking glass, as the beauty of life goes by.
F                B       G                C*
You're going to be so oh, you're going to grow so old,
          D
You're skins so cold,
 
Chorus: 
                  G        Eb
Well they're just narcissists,
       Bb                       C    Bb  C       C    Bb  C
Well, wouldn't it be nice to be Dorian gray, just for the day
     G        Eb
Such narcissists,
Bb                       C    Bb  C   C   Bb  C
Oh what's so great to be Dorian Gray, everyday?

(Interlude and Gtr. Solo)

Chorus:
                 G          Eb
Well they're just narcissists,
      Bb                         C    Bb  C
Well, wouldn't it be great to be Dorian Gray
C    Bb  C      C    Bb  C
Just for a day, just for a day.

----------------------------------------------------------------------------------------- 
Lead Parts
-----------------------------------------------------------------------------------------

Elec. Gtr 1:
Intro Pt1
e|-------|
B|-------|
G|-8h9p8-| repeat as many times as necessary.
D|-------|
A|-------|
E|-------|
Intro Pt2
e|-8---8---6--8--|
B|-8---8---6--8--|
G|-9---9---7--9--| x2
D|-10--10--8--10-|
A|-10--10--8--10-|
E|-8---8---6--8--|
Intro Pt3
e|------------------------------------------------------------5-5-5-|
B|------------------------------------------------------------5-5-5-|
G|----------------------------3-5p3-5p3---5p3---------------5-5-5-5-|
D|-----3-5p3-5p3---5p3------5-----------5-----5-------5-7p5-5-5-5-5-|
A|---5-----------5-----5--3-------------------------7---------------|
E|3\---------------------------------------------5------------------|

Intro Pt4
e|------------------------------------------------------------------|
B|------------------------------------------------------------------|
G|-7B--7B--7B--7B--7B--7B--7--7--7--7-------------------------------|
D|------------------------------------------------------------------|
A|------------------------------------------------------------------|
E|------------------------------------------------------------------|

Elec. Gtr 1 Interlude

e|------------------------------------------------------------------|
B|--------------------5---------5---------------------7--------7--7-|
G|-4----4----------5------5-----5----------6-----6-------7-----7--7-|
D|-5-------5-----------------5------5--7------7-----7--------7------|
A|-5------------5----------------------7----------------------------|
E|-3-----------------------------------5----------------------------|

e|------------------------------------------------------------------|
B|----------------------------------------------------------5--5--7-|
G|-----4--5b--5--3-----5--3--5b--5--3--------5-7-7B-7-5-7-7B-7B-9B-7|
D|-5----------------5--5--3------------5----------------------------|
A|-5--------------------------------------7-------------------------|
E|-3----------------------------------------------------------------|

Elec. Gtr 2 Interlude:

e|----------0--------------------------5----------------------------|
B|----------0-----5-----------------------5-------------7-------7-7-|
G|----------------5--------------------------6----6--------7----7-7-|
D|----------------5----------------------------7-----7--------7-----|
A|-0--0-----------3-------------------------------------------------|
E|-0--0-------------------------------------------------------------|
[ Tab from: http://www.guitartabs.cc/tabs/l/libertines/libertines_tab.html ]
e|---3-----3--5--3------------3-----5-----3-----------5-5---7--5-5--|
B|-3----3-----------3--3/5-5-----5-----5------5--5-5------5--------5|
G|------------------------------------------------------------------|
D|------------------------------------------------------------------|
A|------------------------------------------------------------------|
E|------------------------------------------------------------------|

e|------------------------------------------------------------------|
B|-----7----7----7--------------------------------------------------|
G|-9B---9B---9B---9B------------------------------------------------|
D|------------------------------------------------------------------|
A|------------------------------------------------------------------|
E|------------------------------------------------------------------|

Elec. Gtr 1 Solo (For the solo play: Intro Pt 3 and play Intro Pt4 twice)

-----------------------------------------------------------------------------------------
Track 07 - The Ha Ha Wall 
Tuning   - Standard (EADGBe)
Extras   - Full bend=B Half bend=b. For the second and third verse the chords are the same
as the first I just couldn't be arsed putting in the chords again.
Tabbed By- Nedelko
Any comments, queries or suggestions email me: candidate_1066@hotmail.com

Chords Used:
Bm11(x,9,9,7,0,0) 
E5(x,7,9,9,0,0)
A9(x,0,7,6,0,0)
Asus4(x,0,7,7,x,x) 
G5(3,x,0,0,3,3)
E(0,2,2,0,0,0) 
F#(2,4,4,3,2,2)

Verse:
ASsus4  A9  Bm11 E5  A9       Asus4  A9   Bm11  E5 A9 Asus4 A9     
If you get tired        of just hangin' around.
  Bm11     E5     A9            Asus4  A9    Bm11  E5 A9
Pick up a guitar,    and spin a web of sound.
 Asus4     A9         Bm11        E5      A9
And then you could be strung out all day,
     Asus4  A9   Bm11   E5 A9  Bm11   E5   A9     Asus4  A9
With lovers and clowns,       now I find myself hangin' around.

Pre Chorus:
G5                 Em                       F#
It's been a long war and were tired and dirty.
F#
Still not dirty enough for you.

Verse:

Well I've been thieving I stole the light from the dawn.

Well if you come round this ledge, you'll wish you'd never been born.
	
Aw, tell me you can see me, oh, can't you see through it all.

I'm empty lost and alone. Won't you heed my call?

Pre Chorus:
G5                  Em                     F#
It's been a long war and were tired and dirty,
F#
Well I've been dirty enough for you, ah.

Verse:

Oh, I'm so tired of hangin' around,

I'll pick up a guitar and spin a web of soundssssssss.

Chorus:
A9  Bm11    Asus4   A9 Bm11      Asus4   A9 Bm11      Asus4   A9 Bm11
So tired of hangin' around, just hangin' around, just hanging around.

-----------------------------------------------------------------------------------------
Lead Parts
-----------------------------------------------------------------------------------------

Elec. Gtr 1 Intro

e|--------0-----------0---------0--------0--------0-----------0-----|
B|-----------0--------0------------------0-----------0--------0-----|
G|--7--7--------9--9-----6---------6--7--6--7--7--------9--9-----6--|
D|--9--9--------9--9-----7---7-----7--9--7--9--9--------9--9-----7--|
A|------------------------------------------------------------------|
E|------------------------------------------------------------------|

e|---0-----0--0------0----------0--0---------0------0--0-------0----|
B|---------0--0---------0-------0--0----------------0--0-------0----|
G|---------0--0-------------------------------------0--0------------|
D|-------6-7--6--7--7-------9--9-------6---------6--7--6--7-7----9-6|
A|-7-----7-7--7--9--9-------9--9-------7---7-----7--7--7--9-9----9-7|
E|------------------------------------------------------------------|

Most of what gtr 1 plays is switching between these four chords.

e|-0-|-0-|-0-|-0-|
B|-0-|-0-|-0-|-0-|
G|-7-|-6-|-9-|-7-|
D|---|---|---|-9-|
A|---|---|---|-9-|
E|---|---|---|---|

Interlude

e|------------------------------------------------------------------|
B|------------------------------------------------------------------|
G|-----------12-10----12B--12-10-----------12-10----12B--12-12------|
D|--------12----------------------------12--------------------------|
A|--10-11-12----------------------10-11-12--------------------------|
E|------------------------------------------------------------------|

e|------------------------------------------------------------------|
B|-----------------------10----------------------------10-----------|
G|------------12-10------10----12------------12-10-----10-----12----|
D|--10-11-12--12-10------------12--10-11-12--12-10------------12----|
A|--10-11-12-----------------------10-11-12-------------------------|
E|------------------------------------------------------------------|

e|------------------------------------------------------------------|
B|------------------------------------------------------------------|
G|-----------12-10----12B--12-10-----------12-10----12B--12-12------|
D|--------12----------------------------12--------------------------|
A|--10-11-12----------------------10-11-12--------------------------|
E|------------------------------------------------------------------|

e|------------------------------------------------------------------|
B|-----------------------10----------------------------10-----------|
G|------------12-10------10----12------------12-10-----10-----12----|
D|--10-11-12--12-10------------12--10-11-12--12-10------------12----|
A|--10-11-12-----------------------10-11-12-------------------------|
E|------------------------------------------------------------------|

Gtr Solo

e|------------------------------------------------------------------|
B|------------------------------------------2-----0--0--------------|
G|--4--4-4-7-9-11/12-11------4-4-4--4-7-9-7-------4--2--4-4-4--4-7--|
D|------------------------------------------------------------------|
A|------------------------------------------------------------------|
E|------------------------------------------------------------------|

e|-------------------10-10-10-10-9-7--------------------------------|
B|----------------7------------------10--8-7------------------------|
G|-9-7-7-7-7-7----7--------------------------9-7---7----7-7---------|
D|-------------9---------------------------------9---9--7-9---------|
A|----------------------------------------------------------9-8-7-8-|
E|------------------------------------------------------------------|

e|------------------------------------------------------------------|
B|--------------7----7---7--7------7---7------7--7------7---7-------|
G|---7-----7-9--7--9--7-9b--9--7---7---7---9B----9-7----7---7---9b--|
D|-9---8-9-----------------------9---9---9------------9---9---9-----|
A|------------------------------------------------------------------|
E|------------------------------------------------------------------|

e|--------------------------------------7-10-10-10-10-9-7-----------|
B|--------7---7-------7--7-------7----7-------------------10-8--8-7-|
G|-9-7----7---7----9B----9-7-----7--7-------------------------------|
D|------9---9---9-------------9-------------------------------------|
A|------------------------------------------------------------------|
E|------------------------------------------------------------------|

e|------------------------------------------------------------------|
B|------------------------------------------------------------------|
G|-9-7-9-9B-9-------------------------------------------------------|
D|------------------------------------------------------------------|
A|------------------------------------------------------------------|
E|------------------------------------------------------------------|

-----------------------------------------------------------------------------------------
Track 08 - Arbeit Mach Frei
Tuning   - Standard (EADGBe)
Extras   - Full bend=B Half bend=b. I just wrote the lyrics for this song and didn't put
the chords played above, cos all Gtr 2 plays are the lead parts chords.
Tabbed By- Nedelko
Any comments, queries or suggestions email me: candidate_1066@hotmail.com

Chords Used:
Ab(4,7,6,6,x,x) 
Bb(6,8,8,7,x,x) 
F(1,3,3,2,1,1)
Bb*(x,1,3,3,3,x)
Db(x,4,6,6,6,x)
Eb(x,6,8,8,8,x) 
C(x,3,5,5,5,x)

Lyrics:

Roll a gasper. The guard said he could stay alive,

Gotta shovel and burn his friends to die.

People to die. And on the gate read, Arbeit Macht Frei.

In her rollers with a gasper. She's cleaning the steps in a mean street

Where no policeman walks the beat. For her old man,

He don't like blacks or queers, yet he's proud we beat the nazi's,

How queer.

Arbeit Macht Frei.

-----------------------------------------------------------------------------------------
Lead Parts
-----------------------------------------------------------------------------------------


Intro
Slide between these chords.
e|-------------1--------|
B|-------------1--------|
G|-5--7--7--5--2--------|
D|-6--8--8--6--3--15--3-|
A|-6--8--8--6--3--15--3-|
E|-4--6--6--4--1--------|

Main Riff;
e|-1--1--1--1--1-----------------1--|
B|-1--1--1--1--1-----------------1--|
G|-2--2--2--2--2--5--5--7--7--5--2--|  
D|-3--3--3--3--3--6--6--8--8--6--3--| 
A|-3--3--3--3--3--6--6--8--8--6--3--| 
E|-1--1--1--1--1--4--4--6--6--4--1--|

Main Riff 2;
e|----------------------------------|
B|-3--3--3--3--3--6--6--8--8--6-----|
G|-3--3--3--3--3--6--6--8--8--6-----| 
D|-3--3--3--3--3--6--6--8--8--6-----|
A|-1--1--1--1--1--4--4--6--6--4-----|
E|----------------------------------|

Main Riff 3;
e|--------------------------------0-|
B|-5--5--5--5--5--5--5--5--5--5---0-|
G|-5--5--5--5--5--5--5--5--5--5---0-|
D|-5--5--5--5--5--5--5--5--5--5---0-|
A|-3--3--3--3--3--3--3--3--3--3-----|
E|----------------------------------|

Gtr Solo

e|------------------------------------------------------------------|
B|----------------16-16-16------16-16------16--16--16--16--------16-|
G|-15-15b---15-15-15-15-15b-----15-15b-----15B-15B-15B-15B-------15-|
D|------------------------------------------------------------------|
A|------------------------------------------------------------------|
E|------------------------------------------------------------------|

e|------------------------------------------------------------------|
B|-16------13-13--13-15--15-15-13-15----13-15--13-15--13-13-13-13---|
G|-15------13-13--13-15--15-15-13-15----13-15--13-15--13-13-13-13---|
D|---------13-13--13-----------13-------13-----13-----13-13-13-13---|
A|------------------------------------------------------------------|
E|------------------------------------------------------------------|

e|------------------------------------------------13----------------|
B|------------------------------------------------13----------------|
G|-15B~~~~~~~~~~15B~~~~~~~~~~~~~~~~~~~B~~~~~~~~~~~13----------------|
D|------------------------------------------------0-----------------|
A|------------------------------------------------------------------|
E|------------------------------------------------------------------|

Order:
Intro x4
Main Riff x5
Main Riff 2 x2
Main Riff x2
Main Riff 3 x1
Main Riff x2
Main Riff 3 x1
Gtr Solo
Main Riff x1
End on F.

-----------------------------------------------------------------------------------------
Track 09 - Campaign of Hate
Tuning   - Standard (EADGBe)
Extras   - Full bend=B Half bend=b Quarter bend=Qb
Tabbed By- Nedelko
Any comments, queries or suggestions email me: candidate_1066@hotmail.com

Chords Used:
F6(x,8,10,10,10,10) 
F(x,8,10,10,10,x)
F*(1,3,3,2,1,1)
E5(0,2,x,x,0,0) 
Ab(x,x,,1,1,1,x) 
D(x,5,7,7,6,5) 
Bbsus2(x,1,3,3,1,1) 
Bb7(6,8,6,7,6,6) 
Bb(x,1,3,3,3,x) 
Csus4(x,3,x,0,1,1) 
C(x,3,2,0,1,0) 
C6(x,3,x,2,1,0)
G(3,5,5,4,3,3)

Verse:
Ab    E5  F*                                    Dm
There's a campaign of hate, it's waiting at the school gates.
         F                                      Dm
Now, for what I am aware, it must be what you wrote, what you write.
                                 Bbsus2         Bb7
And you swore that you'd swear to remember why you came.

Not to play follow the leader, no, no.
F*
Poor kids dressing like they're rich (mods)
Dm
Rich kids dressing like they're poor (Oh my god)
F*
White kids talking like they're black
  Dm
I tried it with Charlene and spent three days on my back.

Bridge:
          Bb                         F*
She said "Baby I like the cut of your J.I.B
               Dm                                 Csus4    C C6 C C6 C
Oh don't believe them when they say that you don't get nothing for free

Chorus:
         F*                                     Dm
There's a campaign of hate, it's waiting at the school gates.
         F*                                     Dm
There's a campaign of hate, it's waiting at the school gates.
         F*                                     Dm
There's a campaign of hate, it's waiting at the school gates.
                 F*                                     Dm
Faster. There's a campaign of hate, it's waiting at the school gates.
         F*                                     Dm
There's a campaign of hate, it's waiting at the school gates.
         F*
There's a campaign of hate.

-----------------------------------------------------------------------------------------
Lead Parts
-----------------------------------------------------------------------------------------

Elec. Gtr 1 Intro

e|-10-10---------------------------------------------------------0--|
B|-10-10----10-10----10-10----10-10----10-10----10---------------0--|
G|-10-10----10-10----10-10----10-10----10-10----10---------------0--|
D|-10-10----10-10----10-10----10-10----10-10----10------------------|
A|-8--8-----8--8-----8--8-----8--8-----8--8-----8---------5\--5\----|
E|---------------------------------------------------13\--5\--5\----|

e|--------0--0--|
B|--------0--0--|
G|--------0--0--|
D|-----x--------|
A|-----x--------|
E|-13\-x--------|

Elec. Gtr 2 Intro

e|------------------------------------------------------------------|
B|-----------------------1qb----------------------------------------|
G|-----1qb---------------1qb---3B-3B-3B-3B-3B-1-----1qb-------------|
D|-3-3-----x-3-3-1-x-3-3-----3------------------3-3-----x-3-3-1-x-3-|
A|------------------------------------------------------------------|
E|------------------------------------------------------------------|

Elec. Gtr1 plays this from the words "Poor kids dressing like they're rich"
until "I spent three days on my back"

e|-----13----------------------13-------------------------10--------|
B|---------13----------------------13-----------------10------10----|
G|-------------14----------14----------14-------------------------10|
D|-----------------15----------------------15-12--12----------------|
A|-15------------------15---------------------12--12----------------|
E|------------------------------------------------------------------|

e|-----------------10-----------------13----------17-------------17-|
B|-----------------10-------------10------13----------15--14--14b---|
G|-10--10------10-----------------------------14--------------------|
D|-10--10------10-------------13------------------------------------|
A|---------12----------13/15----------------------------------------|
E|------------------------------------------------------------------|

e|----17----17---17-------|
B|-14b---14b--14b----14b--|
G|------------------------|
D|------------------------|
A|------------------------|
E|------------------------|

Interlude

e|------------------------------------------------------------------|
B|---------------------------1qb------------------------------------|
G|-----1qb--x----------------1-------3B-3B-3B-3B-3-1------1qb-------|
D|-3-3-1----x--3-3-1--x--3-3------3-------------------3-3------x-3--|
A|-----------------0------------------------------------------------|
E|------------------------------------------------------------------|

e|------------------------------------------------------------------|
B|--------------------------------------------------------6B--8--6--|
G|-------------1qb-----3B-3B-3B--3-3-3/5---8--5b--5b--5b------------|
D|-3-1--x--3-3------3-----------------------------------------------|
A|------------------------------------------------------------------|
E|------------------------------------------------------------------|

-----------------------------------------------------------------------------------------
Track 10 - What Katie Did.
Tuning   - Standard (EADGBe)
Extras   -
Tabbed By- Nedelko
Any comments, queries or suggestions email me @ candidate_1066@hotmail.com
Chords Used:

A(x,0,x,9,10,9)
C#m(9,11,11,9,9,9)
F#6(x,9,x,x,10,10)
F#m(x,9,11,11,10,9)
F#m*(2,4,4,2,2,2)
D(x,x,0,2,3,2) 
Dm(x,x,0,3,2,1)
A*(x,0,2,2,2,x)
C#m*(x,4,6,6,5,4)
A**(5,7,7,6,5,5)
D*(10,12,12,11,10,10)
Dm*(10,12,12,10,10,10)
Ab(4,6,6,5,4,4) 
G(3,5,5,4,3,3)
F#(2,4,4,3,2,2)
Bm(x,2,4,4,3,2)
Esus4(0,2,2,2,0,0)
E(0,2,2,1,0,0) 
F#*(x,x,x,6,7,6)
E7(x,x,x,3,4,3) 
A6(x,0,2,2,2,2) 
C#m**(x,x,2,1,2,0)
Bm7(x,2,4,2,3,2)

Chorus:
The chords for this line throughout the song are in this order, cos you only
change the chord at the start of each new shoop, shoop, shoop delang delang.
A,C#m,F#m*,D,Dm,A*,C#m,F#m*,D,Dm
Shoop, shoop, shoop delang, delang. x8

Verse:
A**           C#m               F#m*
What you gonna do Katie? You're a sweet, sweet girl.
            D*                 Dm*              A    
But it's a cruel, cruel world, a cruel, cruel world.
                    C#m                  F#m*
My pins are none too strong Katie. Hurry up missus Brown,
       D                           Dm                 A**
I can feel'em coming down and it won't take none too long.


Pre Chorus:
               Ab   G  F#                             Bm
But since you said goodbye, the polka-dots filled my eyes,
Esus4             A*
And I don't know why,

Chorus:
Chords as explained above
Shoop, shoop, shoop delang, delang. x4

Verse:
            C#m                 F#m*
What you gonna do Katie? You're a sweet, sweet girl.
           D*                  Dm*              A
But it's a cruel, cruel world, a cruel, cruel world.
                      C#m              F#m*
Safety pins are none too strong Katie, They hold my
       D                           Dm                 A**
Life together and I never say never and I never say never again.

Pre Chorus:
               Ab   G  F#                             Bm
But since you said goodbye, the polka-dots filled my eyes,
Esus4             A*
And I don't know why.

Chorus:
Chords as explained above
Shoop, shoop, shoop delang, delang. x4

Free Time:
A                      F#*                            Bm
But since you said goodbye, the polka-dots filled my eyes,
E7               A6
And I don't know why.

Chorus:
Chords as explained above
Shoop, shoop, shoop delang delang. x16

Free Time:
A*                     F#*                           Bm7
But since you said goodbye, the polka-dots filled the sky,
E                A6
And I don't know why.

-----------------------------------------------------------------------------------------
Lead Parts
-----------------------------------------------------------------------------------------
Elec. Gtr 1 Intro

e|-x-x--9--9--9--9--9--9--9--9--9----9--9----9--9--9--9-9-9-9-9-9-9-|
B|-x-x--10-10-10-10-10-10-10-10-10---10-10---10-10-9--9-9-9-9-9-9-9-|
G|-x-x--9--9--9--9--9--9--9--9--9----9--9----9--9--9----------------|
D|------------------------------------------------------------------|
A|------------------------------------------------------------------|
E|------------------------------------------------------------------|

e|-9-9----9-9----9-9-10-10-10-10-10-9--9--9--9--9----9----9--9--9---|
B|-9-9----9-9----9-9-10-10-10-10-10-10-10-10-10-10---10---10-10-10--|
G|------------------------------------------------------------------|
D|------------------------------------------------------------------|
A|------------------------------------------------------------------|
E|------------------------------------------------------------------|

e|-9--9--9----9-9-9-9-9-9-9-9-9----9--9-9-9-0-0--9--9--9--9--9--9---|
B|-10-10-9----9-9-9-9-9-9-9-9-9----9--9-9-9-0-0--10-10-10-10-10-10--|
G|-----------------------------------------------9--9--9--9--9--9---|
D|------------------------------------------------------------------|
A|------------------------------------------------------------------|
E|------------------------------------------------------------------|

e|-9--9----9----9--9--9--9--9-9-9-9-9-9-9-9-9-9----9----9---9--9--9-|
B|-10-10---10---10-10-10-10-9-9-9-9-9-9-9-9-9-9----9----9---9--9--9-|
G|-9--9----9----9--9--9--9--9----------------------9----9---9--9--9-|
D|------------------------------------------------------------------|
A|------------------------------------------------------------------|
E|------------------------------------------------------------------|

-----------------------------------------------------------------------------------------
Track 11 - Tomblands
Tuning   - Standard (EADGBe)
Extras   - ~~~=Hold bend B=Full bend b=Half bend
Tabbed By- Nedelko
Any comments, queries or suggestions email me @ candidate_1066@hotmail.com

Chords Used:
Bm(7,9,9,7,7,7) 
D(10,12,12,11,10,10) 
Am(5,7,7,5,5,5) 
Dm((10,12,12,10,10,10) 
B5(7,9,9,x,x,x)
D5(10,12,12,x,x,x)
A5(5,7,7,x,x,x)
G(3,x,0,0,0,3) 
G/F#(2,x,0,0,0,3) 
Em(0,2,2,0,0,0) 
C(x,3,2,0,1,0) 
D13(x,5,4,0,0,0) 
Am7(5,7,5,5,5,5) 
B(x,2,4,4,4,x) 
G*(3,5,5,4,3,3) 
F#(2,4,4,3,2,2)

High register operational.

Verse:
Am     B5   Bm             D5 Dm   D5   Dm    A5     Am             A5
In the land of the gouging skiving sun, their bodies in a room, lad.
B5    Bm              D5 Dm D5 Dm        A5   Am
Never an honest day's work is done, they call it the Tomblands.

Chorus:
Em  C           D13     Em  C            D13    Em C            D13
No, never gonna get me, no, never gonna get me, no, never gonna get me.

Verse:
Bm                   Dm              Am
Fifteen holes in the dealer's chest, Yo ho ho he was a mini Martell man.
Bm                   Dm              Am                      Am7
??  ??  ??  ?? and shovel up the rest, pieces of eight in the jukebox.

Bridge:
        B     G* F#    G*F#     B               G* F#        G* F#
Thought you should know, didn't wanna be the one to tell ya,
B             G* F#    G*F#     B               G* F#        G* F#
She was only fourteen, I sussed out your dirty little scene.

(Interlude and Gtr Solo)

Chorus:
Em  C           D13     Em  C           D13     Em  C           D13
No, never gonna get me, no, never gonna get me, no, never gonna get me.

-----------------------------------------------------------------------------------------
Lead Parts
-----------------------------------------------------------------------------------------

These two gtr parts are played at the same time.
Elec. Gtr 1 Intro

e|------------------------------------------------------------------|
B|------------------------------------------------------------------|
G|--7--7-------11--11--------5--5-------5--5--------------7--7------|
D|--9--9-------12--12--------7--7-------7--7--------------9--9------|
A|--9--9-------12--12--------7--7-------7--7--------------9--9------|
E|--7--7-------10--10--------5--5-------5--5--------------7--7------|

Elec. Gtr 2 Intro
e|---------------------5-----------5--5-------5--5-----5------7--7--|
B|---------------------5-----------5--5-------5--5-----5------7--7--|
G|---------------------6-----------5--5-------5--5-----5------7--7--|
D|---------------------7-----------7--7-------7--7-----7------9--9--|
A|------------------7-----------7-----------------------------9--9--|
E|------------------5-----------5-----------------------------------|

Gtr1
e|----------------10-----------10---5--5----------------5--5------5-|
B|----------------10-----------10---5--5----------------5--5------5-|
G|----------------10-----------10---5--5----------------5--5------5-|
D|----------------10-----------10---7--7----------------7--7------7-|
A|------------12--------------------7--7----------------------------|
E|------------10--------------------5--5----------------------------|

Gtr2
e|----7-------------10--10-----10--------5--5------5-----5--5-----5-|
B|----7-------------10--10-----10--------5--5------5-----5--5-----5-|
G|----7-------------7---7------7---------5--5------5-----5--5-----5-|
D|----9-------------7---7------7---------7--7------7-----7--7-----7-|
A|----9-------------0--------------------7--7------7-----7--7-----7-|
E|------------------------------------------------------------------|
(End of synchronicity) Chords gtr 2 plays are above tab.
 B5   Bm        D5  Dm     D5  Dm A5  Am                 A5  Am A5 Am
e|--7--7------7----10--10------10----5--5------5----5--5-----5----7-|
B|--7--7------7----10--10------10----5--5------5----5--5-----5----7-|
G|--7--7------7----7---7-------7-----5--5------5----5--5-----5----7-|
D|--9--9------9----7---7-------7-----7--7------7----7--7-----7----9-|
A|--9--9------9----0-----------------7--7------7----7--7-----7----9-|
E|------------------------------------------------------------------|
 B5   Bm        D5  Dm     D5  Dm A5  Am                 A5  Am A5 Am
e|--7--7------7---10--10-------10----5--5------5------5--5--5--5--5-|
B|--7--7------7---10--10-------10----5--5------5------5--5--5--5--5-|
G|--7--7------7---7---7--------7-----5--5------5------5--5--5--5--5-|
D|--9--9------9---7---7--------7-----7--7------7------7--7--7--7--7-|
A|--9--9------9---0------------------7--7------7------7--7--7--7--7-|
E|-----------------------------------------------0-0----------------|

Slow Trill part for Gtr 2 chorus:

e|--3p2-----then---0-|
B|--x19------------0-|
G|-----------------0-|
D|-----------------0-|
A|-------------------|
E|-------------------|

Gtr 1: (Just before second verse)

e|--9-9-8-8-7-7-6-6-5-5-4-4-3-3-0--0-|
B|------------------------------0--0-|
G|-----------------------------------|
D|-----------------------------------|
A|-----------------------------------|
E|-----------------------------------|

Interlude
   Bm   Dm       Am    Bm        Dm        Am
e|------10--9--7-------10--9--7--10--9--7-----5-----5-------5----5--|
B|----------------8---------------------------5-----5-------5----5--|
G|--------------------------------------------5-----5-------5----5--|
D|-8/9-------------------------------------7-----7-------7-----7----|
A|------------------------------------------------------------------|
E|------------------------------------------------------------------|

Gtr Solo

e|--------------14--15--14------------------------------------------|
B|--12--14--15--------------15--12---------------12-------------12--|
G|----------------------------------14B----------14B-14---------14--|
D|-----------------------------------------------~~~~~~-------------|
A|------------------------------------------------------------------|
E|------------------------------------------------------------------|

e|-----------14----15-15-14-----------------------------------------|
B|-12--14-15-15-------------15-12--14--12-12-12-----------12--12--12|
G|-------------------------------------14-14-14-14B--14--14--14--14-|
D|----------------------------------------------~~~~~~~~~~~~~~~~~~~~|
A|------------------------------------------------------------------|
E|------------------------------------------------------------------|

e|------------------------12--12--------------14----14------15--15--|
B|------12--12--12--------12--12--14-14-15-15b---15----15---15--15--|
G|-14--14--14--14---14--x------------------~~~~~~~~~~~~~~~----------|
D|~~~~~~~~~~~~~~~~--------------------------------------------------|
A|------------------------------------------------------------------|
E|------------------------------------------------------------------|

e|--14------14------14------14-----12-------------------------------|
B|-----15b-----15------15-----15---12------12---12---12--12--12--12-|
G|-----~~~~~~~~~~~~~~~~~~~~~~~~~---12--14--14-14B--14--14--14--14---|
D|--------------------------------------------~~~~~~~~~~~~~~~~~~~---|
A|------------------------------------------------------------------|
E|------------------------------------------------------------------|

e|---------------------------------12-12-12-12--12--12-14-14-15-15--|
B|---12--12--12--12--12--12-----12-12-12-14-14--15--15-15-15--------|
G|-14--14--14--14--14--14--14---14----------------------------------|
D|~~~~~~~~~~~~~~~~~~~~~~~~~~~---------------------------------------|
A|------------------------------------------------------------------|
E|------------------------------------------------------------------|

e|-14-14-12-12--12--12----------------------------------------------|
B|-------12-12--12--12-----12-------12-------12---12-12-------------|
G|--------------14--14--14B------14B------14B-----14----14B--14B-14-|
D|------------------------------------------------------~~~~~~~~~~~-|
A|------------------------------------------------------------------|
E|------------------------------------------------------------------|

-----------------------------------------------------------------------------------------
Track 12 - The Saga
Tuning   - Standard (EADGBe)
Extras   - Chords in brackets are played between words.
Tabbed By- Nedelko
Any comments, queries or suggestions email me @ candidate_1066@hotmail.com

Chords Used:
Am(x,0,2,2,1,0) 
G(3,x,0,0,0,x) 
C(x,x,6,6,6,x) 
A5(5,7,x,x,x,x) 
G5(3,5,x,x,x,x) 
E(x,7,9,9,9,x) 
Am*(x,0,7,5,5,5) 
D/A(x,0,5,5,5,x) 
Dm(x,x,0,7,6,5) 
E*(0,2,2,1,0,0) 
Am9(x,0,7,5,0,0) 
D6/A(x,0,7,7,7,7)

Verse:
  Am*(D/A Am*)D/A   Am* (D/A Am*)  D/A         Am*           (D/A Am*)
A problem becomes a problem, when you let down your friends,
    D/A              Am* (D/A Am*) D/A          Dm
When you let down the people, when you let down yourself.

Chorus:
       E*                                                  Am G Am C A5
And only fools, vultures and undertakers will have any time for you.

Verse:
  Am*(D/A Am*)D/A   Am* (D/A Am*)  D/A         Am*           (D/A Am*)
A problem becomes a problem, when you lie to your friends,
    D/A              Am* (D/A Am*) D/A          Dm
When you lie to the people, when you lie to yourself.

Chorus:
       E*                                                  Am G Am C A5
And the truth's too hard to comprehend, you just pretend,
                  Am*
That there isn't a problem.

Bridge:
                             Dm               
Cos I am a pimp and a slave, and dig my bed, you dig my bed.
            Am
Woo, I dig my grave, Just a spoonful of sugar helps the medicine. 

Chorus:
   E*                             
It seems too hard to comprehend, Aw, you just pretend,
                  Am G Am                             Am G Am C
That there isn't a problem, No, no ain't got a problem,
                         (Am G Am) Am G Am G
It's you with the problem. Aw_____________________

Outro:
        Am G Am C A5 (G5 A5 C)Am G Am C Am
Yeah,   problem,              problem.

-----------------------------------------------------------------------------------------
Lead Parts
-----------------------------------------------------------------------------------------
Elec. Gtr 1 Intro
e|--------------------------------------------------------------------|
B|---------------5-----------------5---------------5----------------5-|
G|---------------5-----------------5---------------5----------------5-|
D|---------------5-----------------5---------------5----------------5-|
A|-7--7--5--7-------7-x-7-x-5-7-7----7--7--5--7-------7-x-7-x-5-7-7---|
E|-5--5--3--5-------5-x-5-x-3-5-5----5--5--3--5-------5-x-5-x-3-5-5---|

Elec. Gtr 2 Intro
e|-0--0--0--0-------------------------0--0--0--0----0-----------------|
B|-1--1--0--1-------------------------1--1--0--1----0-----------------|
G|-2--2--0--2-------------------------2--2--0--2----0-----------------|
D|-2--2--0--2-------------------------2--2--0--2----0-----------------|
A|--------------------------------------------------------------------|
E|--------------------------------------------------------------------|

Gtr 1: (contd.)
e|------------------------------------0--0--|
B|---------------5--9--9--9--9--9--9--0--0--|
G|---------------5--9--9--9--9--9--9--0--0--|
D|---------------5--9--9--9--9--9--9--0--0--|
A|-7--7--5--7-------7--7--7--7--7--7--------|
E|-5--5--3--5-------------------------------|

Gtr 2: (contd.)
e|-0--0--0--0----0--------------------------|
B|-1--1--0--1----0--------------------------|
G|-2--2--0--2----0--------------------------|
D|-2--2--0--2----0--------------------------|
A|------------------------------------------|
E|------------------------------------------|

Gtr 1 Verse:
e|----0---------2---5--5----2----2----x------0----2--2--2----5--5---|
B|----1-------3-----5--5----3----3----x----1------3--3----4--5--5---|
G|-2-----2--4-------5--5----4----4----x--2-----2--4--4-------5--5---|
D|------------------------------------------------------------------|
A|------------------------------------------------------------------|
E|------------------------------------------------------------------|

e|-2----2----x------0-----2--2--2-----5----2----2----x------0----2--|
B|-3----3----x----1-------3--3--------5----3----3----x----1------3--|
G|-4----4----x--2------2--4--4-----4--5----4----4----x--2-----2--4--|
D|------------------------------------------------------------------|
A|------------------------------------------------------------------|
E|------------------------------------------------------------------|

e|-2--2----5--5----2----2----x--1----1------------------------------|
B|-3-------5--5----3----3----x--3----3----------------------3/------|
G|-4----4--5--5----4----4----x--2----2----------------------2/------|
D|------------------------------0----0------------------------------|
A|------------------------------------------------------------------|
E|------------------------------------------------------------------|

e|-----------------------------------------------------------0---0--|
B|/15----15-15-15-15-15-15-15-15-15-15-15-15-15-15-15-15-15--0---0--|
G|/14----14-14-14-14-14-14-14-14-14-14-14-14-14-14-14-14-14--0---0--|
D|-----------------------------------------------------------0---0--|
A|------------------------------------------------------------------|
E|------------------------------------------------------------------|

Interlude:
    Gtr 1    (Play at same time)               Gtr 2
e|--0-----------------------|------0------------------------0-------|
B|-------0----0-------------|------0------------------------0-------|
G|------------5----5--------|------17-----------------------17------|
D|------------7---------7---|------19-----------------------19------|
A|--------------------------|---------------------------------------|
E|--------------------------|---------------------------------------|
                                               D6/A
e|--------------------------|---------------------------------------|
B|--------------------------|---------------------------------------|
G|-------4----5/12\9------9-|---------------------------------------|
D|--7-----------------------|---------------------------------------|
A|--------------------------|--0----2----3/10\7\---------5\-----3---|
E|--------------------------|---------------------------------------|

Bridge:
                                               D6/A
e|--------------------------|---------------------------------------|
B|--------------------------|---------------------------------------|
G|-------4----5/12\9------9-|---------------------------------------|
D|--7-----------------------|---------------------------------------|
A|--------------------------|--0----2----3/10\7\---------5\-----3---|
E|--------------------------|---------------------------------------|

e|--------------------------|---------------------------------------|
B|-------5----6/13\10-------|---------------------------------------|
G|--7-----------------------|---------------------------------------|
D|--------------------------|----------------------------0----------|
A|--------------------------|--0----2----3/10\7\----------------3---|
E|--------------------------|---------------------------------------|

----------------------------------------------------------------------------
Track 13 - Road To Ruin
Tuning   - Standard (EADGBe)
Extras   - 
Tabbed By- Nedelko
Any comments, queries or suggestions email me@ candidate_1066@hotmail.com
Chords Used:
Em(x,7,9,9,8,7) 
B7#5(x,2,1,2,0,3) 
B7(x,2,1,2,0,2) 
Em*(0,2,2,0,0,0) 
Am(x,0,2,2,1,0) 
Am*(x,0,7,5,5,5) 
E(x,7,9,9,9,x) 
A7(5,7,5,6,5,5)

Verse:
B7      Em*                                 Am                      Em*
How can we make you understand? All you can be is given in your hands.
                       B7#5              B7           Em*
No, you won't need money, 
         Em                                         Am*
Trust in me, take me by the hand. Oh, give us a chip, dreams are,
                    Em 
Strewn across the sand, you won't need money.

Chorus:
             E
Well all the bent back peddlers the jugglers and fools. 

They drive me crazy, I'm climbing the walls,
A7 
So show me the way, the way to my stool. 
E                              B7#5          B7
Cos I'm so sick, so sick of it all. When the penny drops.

Verse:
         Em                                       Am*
Trust in me, take me by the hand. No don't cash in your chips.
                                      Em
Just yet, They're strewn across the sand. You won't need,
    B7#5           B7     E
You won't need money, no, no.

Chorus: 
             E
Well all the bent back peddlers, the jugglers and fools.
                                          A7
They drive me crazy, It's no good at all. So show me the way,
                     E                               B7#5
The way to my stool, Cos I'm so sick, so sick of it all.
         B7
When the penny drops.

-----------------------------------------------------------------------------------------
Lead Parts
-----------------------------------------------------------------------------------------

Elec. Gtr 1 Intro:
e|--7------7------7------7------7------7------7------7-----------3--|
B|--8------8------8------8------8------8------8------8-----0-----0--|
G|--9------9------9------9------9------9------9------9--------2--2--|
D|--9------9------9------9------9------9------9------9--2--------1--|
A|--7------7------7------7------7------7------7------7--------------|
E|------------------------------------------------------------------|

Elec. Gtr 2 Intro:
e|-----------------------------------------------------------------2|
B|--------------------------9------8------8------8-----------------0|
G|--------------------------9------9------9------9-----------------2|
D|--------------------------9------9------9------9-----------------1|
A|--------------------------7------7------7------7-----------------2|
E|------------------------------------------------------------------|

Elec. Gtr 1 Verse (Play these riffs)
e|------------------------------------------------------------------|
B|------------------------------------------------------------------|
G|------------------------------------------------------------------|
D|--2-2-2-2-0---0-2-2-2-2-2-2-2--0--2--2-2-2-2-0---0-2--------------|
A|------------2----------------------------------2------------------|
E|------------------------------------------------------------------|

e|------------------------------------------------------------------|
B|------------------------------------------------------------------|
G|--2-2-2-2-0---0-2-2-2-2-2-2-2--0---2-2-2-2-0----0-2-2-2-2-2-2-0---|
D|------------2--------------------2-----------2------------------2-|
A|------------------------------------------------------------------|
E|------------------------------------------------------------------|

e|------------------------------------------------------------------|
B|------------------------------------------------------------------|
G|------------------------------------------------------------------|
D|-14-14-14-12-----12-14-14-14-14-14-14-14-14-14--------------------|
A|-------------14---------------------------------------------------|
E|------------------------------------------------------------------|

e|------------------------------------------------------------------|
B|------------------------------------------------------------------|
G|-14-14-14-14-14-12----12-14-14-14-14-14-14--14--14--14p12---------|
D|-------------------14---------------------------------------------|
A|------------------------------------------------------------------|
E|------------------------------------------------------------------|

e|------------------------------------------------------------------|
B|------------------------------------------------------------------|
G|-------------------------------------------------------14---------|
D|-14-14-14-14-12----12-14-14-14-14-14-14--14--14p12----------------|
A|----------------14---------------------------------14-------------|
E|------------------------------------------------------------------|

Gtr Solo: 
(Gtr 2 plays these slides, you'll have to figure out which goes where)

e|-7/12-|------|------|-----|-7/12-|-0-|-0--|-12-|------------------|
B|-7/12-|-8/12-|-7/12-|-7/8-|-8/13-|-8-|-10-|-12-|------------------|
G|------|-9/14-|-7/12-|-7/9-|-9/14-|-9-|----|-12-|------------------|
D|------|------|------|-----|------|And later plays these chords after
A|------|------|------|-----|------|the slide----|------------------|
E|------|------|------|-----|------|---|----|----|------------------|

Gtr 1 Solo:
e|-----------------------12-----------------------------------------|
B|----12--12--------12---12-----12--12------12----------------------|
G|-14-14B-14B-14-14-14B-----14b-14B-14B--14-12----------------------|
D|--------~~~~~~----------------------------12--14p12-14-12-14--12--|
A|------------------------------------------------------------------|
E|------------------------------------------------------------------|

e|------------------------------------------------------------------|
B|---------------------------------------------------12-12----------|
G|-----12-----14b--14-12-----------------------------12-14B--14-12--|
D|-14--12--14------------14-----------12--14-12-14--------------12--|
A|---------------------------12h13-14-------------------------------|
E|------------------------------------------------------------------|

e|---------------------------------------------------------12-12----|
B|------12------12--------------------12-----12-----12-----12-12--3-|
G|------12------12--------------------12-----12-----12-14B----------|
D|-14------14------14-----------12-14----14-----14------------------|
A|---------------------12-13-14-------------------------------------|
E|------------------------------------------------------------------|

e|-3--3/4--4-5--5--6--6--7------------------------------------------|
B|-3--3/4--4-5--5--6--6--7--7---------------------8-----------------|
G|--------------------------9B---9---9------------9-----------------|
D|---------------------------------------9--9--7--------------------|
A|------------------------------------------------------------------|
E|------------------------------------------------------------------|

Interlude
e|------------------------------------------------------------2---3-|
B|-0-----1-0---0----------------------------------------0-0-----0---|
G|---2-------2------0-----------0-------0---0--------2------2-------|
D|-----2--------------2-0---0-------2--------------1---1------------|
A|----------------2-------2---2---2---2---2----2-2------------------|
E|------------------------------------------------------------------|

e|-2--0----------------------------------3----2--------------7------|
B|----0--------------------------------0---------------------8------|
G|-------0---------------------------2-----------------------9------|
D|-------2------2---2----2---------1--------------------------------|
A|----------------2------2/14------2--------------------------------|
E|------------------------------0-----------------------------------|

-----------------------------------------------------------------------------
Track 14 - What Became of the Likely Lads?
Tuning   - Standard (EADGBe)
Extras   - Chords in brackets are played between the words they are placed above.
Tabbed By: Nedelko
Any comments, queries or suggestions email me @ candidate_1066@hotmail.com

Chords Used:
G(3,5,5,4,x,x) 
D/A(5,5,7,7,7,x) 
A(5,7,7,6,5,5) 
E(x,7,9,9,9,x) 
Bm(7,9,9,7,7,7) 
D(x,5,7,7,7,x) 
Dm(,x,x,0,2,3,1) 
B7(7,9,7,8,7,7) 
Eb(,x,6,8,8,8,x) 
C#(x,4,6,6,6,x) 
C(x,3,5,5,5,x) 
B(x,2,4,4,4,x) 
A6/9(x,0,4,4,2,2) 
A6(x,0,2,2,2,2)

Verse:
                                 E        
Please don't get me wrong, See I forgive you with a song,
               Bm        (D E)   A                            E
We'll call the Likely lads.  But if it's left to you, I know exactly
                           Bm              D E
What you'd do with all the dreams we had.

Pre Chorus:
    D                       Dm             
Cos blood runs thicker, oh, were as thick as thieves you know.
A                                           D
If it's important to you, it's important to me.
                 Dm          B7
I tried to make you see, but you don't want to know.

Verse:
       A                             E
If you pipe all summer long then get forgiven in a song.
              Bm         (D) E           A           
Well that's a touch my lad. They sold my rights to all my wrongs,
              E                             Bm               D E
But when they needed the new songs. Welcome back they said.

Pre Chorus:
    D                             Dm      
But blood runs blood thicker, oh, were as thick as thieves you know.
A                                               D
That's important to you, then it's important to me. 
                      (Dm)  B7                      E                
I tried to make you see but you don't want to know.

Chorus:
A          E              D         A      E           D
Oh, what became of the likely lads? What became of the dreams we had?
A      E          D     A          E          D
What became of forever? Oh, what became of forever? 
                 A
We'll never know.

Verse:
       A                            E
Please don't get me wrong see I forgive you in a song, we'll call,
              Bm         (D) E           A
The Likely Lads. We all bought the ones, we taught 'em all,
              E                             Bm              D E 
We wrote the songs that filled the dreams we had.

Pre Chorus:
    D                             Dm
But blood runs blood thicker, oh, were as thick as thieves you know.
A                                               D
That's important to you, then it's important to me. 
                      (Dm)  B7                     E
I tried to make you see but you don't want to know.

Chorus:
A          E              D         A      E           D
Oh, what became of the likely lads? What became of the dreams we had?
A      E          D     A          E          D
What became of forever? Oh, what became of forever? 
                 A
We'll never know.
                 A
We'll never know.

-----------------------------------------------------------------------------------------
Lead Parts
-----------------------------------------------------------------------------------------

Elec. Gtr 1 Intro
e|------------------------------------------------------------------|
B|------7---------------------------------------------------7-------|
G|-4/7--7-----6----6--6--------------6-----------------4/7--7-------|
D|-5/7--7--5--7----7--7--7--7--------7--7--5--7--7--7--5/7--7--5--7-|
A|-5/5--5--5--7----7--7--7--7--7--7--7--7--7--7--7--7--5/5--5--5--7-|
E|-3/5--5--5--5----5--5--------5--5--5--5--5--5--5--5--3/5--5--5--5-|

e|------------------------------------------------------------------|
B|---------------------------------------------7--------------------|
G|---6--6--------------6---------------6--4/7--7-----6--------------|
D|---7--7--7--7--------7--7--5---7--5--7--5/7--7--5--7--------------|
A|---7--7--7--7--7--7--7--7--7---7--7--7--5/5--5--5--7--------------|
E|---5--5--------5--5--5--5--5---5--5--5--3/5--5--5--5--------------|

Little Riff:
e|-8--7--5--5--8--7--5--8--7--5-------------------------------------|
B|-8--7--5--5--8--7--5--8--7--5-------------------------------------|
G|------------------------------------------------------------------|
D|------------------------------------------------------------------|
A|------------------------------------------------------------------|
E|------------------------------------------------------------------|

Gtr 1 Solo:
e|------------------------------------------------------------------|
B|-3/5\3-2-3-3/5\3-2-3-3/5------3-2---------------------------------|
G|----------------------------------2------2-4p2--4b--4b--4b-4-2-2--|
D|------------------------------------------------------------------|
A|------------------------------------------------------------------|
E|------------------------------------------------------------------|

Gtr 2 Plays this at the same time as gtr 1 plays that above,
But stops after this bar and carries on playing chords.
e|------------------------------------------------------------------|
B|-5-3-2-3-5--3-2-0--0--0-2-2h3-2-0--0-2-3-3-3/5-3-2-0--------------|
G|-------------------------------------------------0-0--------------|
D|------------------------------------------------------------------|
A|------------------------------------------------------------------|
E|------------------------------------------------------------------|

Gtr 1 (contd.)
   A                   E                 Bm           D
e|------------------------------------------------------------------|
B|-3/5\3-2-3-3/5\3-2-3-3/5--3--2h3p2-5-3-2--------------------------|
G|-----------------------------------------2-4--2-4-4-4B-4B-4B-4-2--|
D|------------------------------------------------------------------|
A|------------------------------------------------------------------|
E|------------------------------------------------------------------|

Outro
e|------------------------------------------------------------------|
B|---5-3-2-3-5-3--2-----5--3--2----3--5--3--2--3--2-----2--2--------|
G|-2-------------------------------------------------4--2----2------|
D|------------------------------------------------------------------|
A|------------------------------------------------------------------|
E|------------------------------------------------------------------|

----------------------------------------------------------------------------
Well there ya go. That's the whole album. I hope ya like it and enjoy playing.
Email me if ya think there is anything wrong with it. Thanks.
Comments