Libertines - Hooligans On E Chords & Tabs

 

Hooligans On E Chords & Tabs

Libertines Chords & Tabs

Version: 1 Type: Tab 0 ratings
1 star 2 stars 3 stars 4 stars 5 stars
comments

Hooligans On E Tab

   
Tabbed By : Dave_mc_89
HOOLIGANS ON E The Libertines

An unreleased song, quite rare, recently covered by Killcity. e-mail me with any problems or queries.

Intro Part 1
Guitar 1
e|-0~--4~-4-2-0-4-4-5-7-5-4--4-5-7-|
b|---------------------------------|
g|---------------------------------|
d|---------------------------------|
a|---------------------------------|
e|---------------------------------|
Guitar 2 
e|---------------------------------|
b|---------------------------------|
g|---------------------------------|
d|-9-9--9-9------------------------|
a|-7-7--7-7------------------------|
e|---------------------------------|

Intro Part 2
[ Tab from: http://www.guitartabs.cc/tabs/l/libertines/hooligans_on_e_tab.html ]
Guitar 1
e|---------------------------------------------|
b|---------------------------------------------|
g|---------------------------------------------|
d|-6-6--6-6--1-1--1-1--2-2--2-2--2-2--1-1------|
a|-7-7--7-7--2-2--2-2--4-4--4-4--4-4--2-2------| 
e|---------------------------------------------|

Guitar 2
e|---------------------------------------------|
b|---------------------------------------------|
g|---------------------------------------------|
d|---------------------------------------------|
a|-11-11--11-11--6-6--6-6--7-7--7-7--4-4--6-6--|
e|-12-12--12-12--7-7--7-7--9-9--9-9--5-5--7-7--|

Repeat intro part 2 as necessary

Verse

B  C# B A G#
B C# B A A G#
E G# E E F# G# E

You can't really understand all of the words if you listen to the song, but you can just
hum along to those chords in a strained sort of voice and it'll sound about right. Sorry
it's not to detailed!
Comments