Libertines - France Chords & Tabs

 

France Chords & Tabs

Libertines Chords & Tabs

Version: 1 Type: Tab 0 ratings
1 star 2 stars 3 stars 4 stars 5 stars
comments

France Tab

   
Bm     G7     E     F#

2      0      0     2
3      0      0     2
4      0      2     3
4      0      2     4
2      2      1     4
x      3      0     2

Intro :

Bm / G7 / E / F# / Bm / G7 / E / F#

Verse 1 :

Bm                G7          E                              F#
The ideal girl in London from France came over then left me she left me entranced

Bm                   G7                   E             F#
now I have to get by once again on my own nothing but...memories

Bm                           G7                   E                             F#
so I remember your eyes that fine shade of brown while these blue eyes of mine they stay closed

Bm                          G7    E             F#
I kissed you goodbye on the M-109 I choked as I watched the bus go

Chorus :
[ Tab from: http://www.guitartabs.cc/tabs/l/libertines/france_tab.html ]
e-------------3---3------------------------|
b-------------3---3------------------------|
g-------------4---4-----------------3------|
d-------------3---3---------------4---4----|
a-------------5---5-------------4-------4--|
E---7-5-3-2-3-3-3-3-0-1-2-1-0-2------------|

e-------------3---3------------------------|
b-------------3---3------------------------|
g-------------4---4-----------------3------|
d-------------3---3---------------4---4----|
a-------------5---5-------------4-------4--|
E---7-5-3-2-3-3-3-3-0-1-2-1-0-2------------|

e------3-------2-|
b------3-------2-|
g------4-------3-|
d------3-------4-|
a------5-------4-|
E--3---3---0---2-|

e------3-------2-|
b------3-------2-|
g------4-------3-|
d------3-------4-|
a------5-------4-|
E--3---3---0---2-|

e--------------|
b--------------|
g-------3------|
d---------4----|
a----4------4--|
E--------------|

Verse 2 :

Bm                              G7                E                          F#
I'm choking and smoking to your angelic soul I'm choking and smoking myself into a hole

Bm                           G7                         E       F#
Where the only way out is to sleep and to dream and to cry out your name

Order :

Intro, Verse 1, Chorus, Verse 2, Chorus.

Tabbed by chris smith    turbosmith@msn.com
Comments