Libertines - Dont Look Back Into The Sun Chords & Tabs

 

Dont Look Back Into The Sun Chords & Tabs

Libertines Chords & Tabs

Version: 5 Type: Tab 0 ratings
1 star 2 stars 3 stars 4 stars 5 stars
comments

Dont Look Back Into The Sun Tab

   
This song is 100% correct and uses real chords not barre chords have fun any problems
email me: im_atheist@hotmail.com

Intro: (guitar two, when chords stop)

e:---3--3--3-3--3--3-3--3--3-3--3--3-3--3--3-3--3--3-----------------|
B:----33-33-3-33-33-3-33-33-3-33-33-3-33-33-3-33-33-3----------------|
G:-------------------------------------------------------------------|
D:-------------------------------------------------------------------|
A:-------------------------------------------------------------------|
E:-------------------------------------------------------------------|


e:----------------------------------------------------------------------|
B:----------------------------------------------------------------------|
G:12\--------4--4-5-7-5-4---4-5-7-4-5-7-4-5-7-5-4-----------------------|
D:----------------------------------------------------------------------|
A:----------------------------------------------------------------------|
E:----------------------------------------------------------------------|
     Yeah!

e:----------------------------------------------------------------------|
B:-7-9-11-7-9-11-7-9-11--9--7-9---7-------------------------------------|
G:----------------------------------7--5--4--2--------------------------|
D:----------------------------------------------------------------------|
A:----------------------------------------------------------------------|
E:----------------------------------------------------------------------|




Verse 1
[ Tab from: http://www.guitartabs.cc/tabs/l/libertines/dont_look_back_into_the_sun_tab_ver_5.html ]
G                D
Dont look back into the sun
Em7                    D
now you know that your time has come
C                       D                  G                D
and they said that it'd never come for you     (Oh Oh Oh Oh)
G                D
oh my friend you havent changed
Em7               D
looking rough and living strange
C                       D                    G              D
and I know the you've got a taste for it too


Chorus

C                                                G
They'll never forgive you but they won't let you go   (Oh No)
C                                                D
no she'll never forgive you but she wont let you go, oh no

Verse 2

G                         D
Don't look back into the sun
Em7                D
you got your past, but you are on the run
C                    D                   G               D
I know the lies you said you dared to say
G                                 D
When they played that song at the Death Disco
Em7                   D
It starts so fast and ends so slow
C                     D                   G               D
all the time just reminds me of me and you

Chorus Two

C                                                    G
Ah they will never forgive you but they wont let you go
(Let me go!!)
C                                             D
She'll never forgive you but she wont let you go, oh no

Middle

Guitar one plays Verse chords.
Guitar two riff one.


Repeat Chorus two and Middle until the end
Comments