Libertines - Dont Look Back Into The Sun Chords & Tabs

 

Dont Look Back Into The Sun Chords & Tabs

Libertines Chords & Tabs

Version: 3 Type: Tab 0 ratings
1 star 2 stars 3 stars 4 stars 5 stars
comments

Dont Look Back Into The Sun Tab

   
Don't Look Back Into the Sun - The Libertines



Chords:

	  E	  A	  D	  g	  b	  E
G	  10	  10	  12	  12	  12	  10
D	  10	  12	  12	  11	  10	  10
Em7	  7	  7	  9	  7	  8	  7
Am	  0	  0	  5	  5	  5	  0
Bm	  0	  0	  7	  7	  7	  0
C	  8	  10	  10	  9	  8	  8
D*	  5  	  5	  7	  7	  7	  5
C*	  3	  3 	  5	  5	  5	  3
						


Intro: (guitar one palm muted)
e:----10----10----7----7----3---5----10----10----------------
B:----12----10----8----5----5---7----10----10----------------
G:----12---11----7----5----5---7----12----11----------------
D:----12----12----9----5----5---7----12----12----------------
A:----10----12----7----7----3---5----12----12----------------
E:----10----10----7----7----3---5----10----10----------------



Intro: (guitar two)

Riff 1

e:-------------------------------------------------------------------
B:-------------------------------------------------------------------
G:12\---4--4-5-7-5-4-4-5-7-5-4--4-5-7-4-5-7-4-5-7-5-4----------------
D:-------------------------------------------------------------------
A:-------------------------------------------------------------------
E:-------------------------------------------------------------------
                   
e:------------------- -----------------------------------------------
B:-7-9-11-7-9-11-7-9-11--9--7--9--7----------------------------------
G:----------------------------------7-7-5-5-4-4-2-2------------------
D:-------------------------------------------------------------------
A:-------------------------------------------------------------------
E:-------------------------------------------------------------------


Verse 1
[ Tab from: http://www.guitartabs.cc/tabs/l/libertines/dont_look_back_into_the_sun_tab_ver_3.html ]
g                D
Dont look back into the sun
Em7                    D*
now you know that your time has come
C*                      D*                g                    D                           
and they said that it'd never come for you     (Oh Oh Oh Oh)
g                D
oh my friend you havent changed
Em7               D*
looking rough and living strange
C*                       D*                     g           D
and I know the you've got a taste for it too


Chorus

C                                                g
They'll never forgive you but they won't let you go   (Oh No)
C
no she'll never forgive you but she wont let you go, oh no



Verse 2

g                         D
Don't look back into the sun
Em7                D*
you got your past, but you are on the run
C*                 D*                       g               D
I know the lies you said you dared to say
g                                 D
When they played that song at the Death Disco
Em7                   D*
It starts so fast and ends so slow
C*           D*                             g               D
all the time just reminds me of me and you

Chorus Two

C                                                    g
Ah they will never forgive you but they wont let you go  
(Let me go!!)
C
She'll never forgive you but she wont let you go, oh no

Middle

Guitar one plays Verse chords.
Guitar two riff one.
                     
 
Repeat Chorus two and Middle til end.
Comments