Libertines - Dont Look Back Into The Sun Chords & Tabs

 

Dont Look Back Into The Sun Chords & Tabs

Libertines Chords & Tabs

Version: 2 Type: Tab 2 ratings
1 star 2 stars 3 stars 4 stars 5 stars
comments

Dont Look Back Into The Sun Tab

   
DON’T LOOK BACK INTO THE SUN

Opening:
(Guitar 1)
-3-3-3-3-3-2-2-2-2-2-2-|----|-33333333333333333----------------------
-3-3-3-3-3-3-3-3-3-3-3-|-x3-|-33333333333333333----------------------
-----------------------|----|----------------------------------------
-----------------------|----|----------------------------------------
-----------------------|----|----------------------------------------
-----------------------|----|----------------------------------------
                                                                              
During opening, Guitar 2 alternates between the 3rd frets on the high e and b strings

Riff (x2):
G               D                  G                  D
---------------------------------------------------------------------
---------------------------------------------------------------------
------7--------------7------------------77------7-----------7--------
-9-10---10-9----9-10---10---9------9-10----9-10---10-9-9-10---10-9---
---------------------------------------------------------------------
---------------------------------------------------------------------
                                         
[ Tab from: http://www.guitartabs.cc/tabs/l/libertines/dont_look_back_into_the_sun_tab_ver_2.html ]
1st time play this
C              D                G             D
----------------------------------------||--------------------|------
-----8-----8----10--8-----8------8------||--------------------|------
-7h9---7h9---9---------11----11-----7-7-||-777-555-444-333-|------
----------------------------------------||--------------------|------
----------------------------------------||--------------------|------
----------------------------------------||--------------------|------
                                                                              

G                    Verses:
-------------------|------------------------------------------------------|-
----8-----8-----8--|888888887777777788811010108877788877-8-888101010888778|-
-7-7---7-7---7-7---|--------------------------------------77-77-----------|-
-------------------|------------------------------------------------------|-
-------------------|------------------------------------------------------|-
-------------------|------------------------------------------------------|-
                                                                              


Riff again (with 1st ending)


During Riff, Guitar 2 does this for a bit:

-7---7---7---7---7---7---7---7---|-----------------------------------
---8---8---7---7---8---8---7---7-|-----------------------------------
---------------------------------|-----------------------------------
---------------------------------|-----------------------------------
---------------------------------|-----------------------------------
---------------------------------|-----------------------------------


Comments