Libertines - Dont Look Back Into The Sun Chords & Tabs

 

Dont Look Back Into The Sun Chords & Tabs

Libertines Chords & Tabs

Version: 1 Type: Tab 1 rating
1 star 2 stars 3 stars 4 stars 5 stars
comments

Dont Look Back Into The Sun Tab

   
Don’t Look Back into the Sun- The Libertines

Intro Chords
     G          D        C
E -7--------5------3--------------------------------------------------------
B--8--------7------5--------------------------------------------------------
G--7--------7------5---------------------------------------------------------
D--------------------------------------------------------------------------
A--------------------------------------------------------------------------
E--------------------------------------------------------------------------

Work out yourself when to change between these chords its not hard.
[ Tab from: http://www.guitartabs.cc/tabs/l/libertines/dont_look_back_into_the_sun_tab.html ]
Intro Lead (also repeated later in song)
E ------------------------------------------------------
B-------------------------------------------------------
G--4-5-7-5-4-4-5-7-5-4-4-5-7-4-5-7-4-5-7-5-4
D------------------------------------------------------
A------------------------------------------------------
E------------------------------------------------------

E ------4------4--6-4-3-4-3-4---------------------
B -4-6---4-6--------------------4-4----------------
G----------------------------------------------------- 
D -----------------------------------------------------
A -----------------------------------------------------
E -----------------------------------------------------


Chord to song. 
 I don’t know whether they are played in power chords, open chords or barred chords but it sounds good with all of them.

G	D	Em	D	C	D	G	D x3

G	D	Em	D	C	D	G	D	G

D	Em	D	C	D	G	D	C	

G		C		D

 

Please email corrections and suggestions to mlaids@hotmail.com

Comments