Libertines - Delaney Chords & Tabs

 

Delaney Chords & Tabs

Libertines Chords & Tabs

Version: 1 Type: Tab 0 ratings
1 star 2 stars 3 stars 4 stars 5 stars
comments

Delaney Tab

   
ok this song has been a ticking time bomb its so so good but none of the lead was 
i used a live video for help and must quote GENERAL SMUTS as he helped too .... any way BELOW

intro
e-1-1--3-3-3-3--1-1x--|
b-3-3--5-5-5-5--1-1x--|
g-3-3--5-5-5-5--2-2x--|
d-3-3--5-5-5-5--3-3x--|
a-1-1--3-3-3-3--3-3x--|
e-1-1--3-3-3-3--1-1x--|

e------------------------------------------| played a few times
b-10b-10b-10b-10b-10b--------10-10-10---10-|
g-12b-12b-12b-12b-12b--------10-10-10---10-|
d---------------------10-h-12---------12---|
a------------------------------------------|
e------------------------------------------|played super quick ala carlos
-
e-10-10-10-10--8-6-5-5---8-8-8-5---5-333-11-1-11-33-5-3-|
b-10-10-10-10--------6---8-8-8-6---6-555-33-2-33-55-6-5-|
g-10-10-10-10-------------------------------------------|
d-------------------------------------------------------|
a-------------------------------------------------------|
e-------------------------------------------------------|


F                    DM
On the bus the other day
C                              DM
You could tell right from the start
F                  DM
Theres magic in the ?
C                    DM
Can you play guitar boy
C               DM
Can you play guitar
C                C               C
The truth is known the drums they roll
C                            C
I loop the loop on the old banjo


Say no no no
Say yeah yeah yeah
I said maybe maybe maybe
I just dont care
e------------------------------------------| play few times
b-10b-10b-10b-10b-10b--------10-10-10---10-|
g-12b-12b-12b-12b-12b--------10-10-10---10-|
d---------------------10-h-12---------12---|
a------------------------------------------|
e------------------------------------------|
[ Tab from: http://www.guitartabs.cc/tabs/l/libertines/delaney_tab.html ]
e-10-10-10-10--8-6-5-5---8-8-8-5---5-333-11-1-11-33-5-3-|
b-10-10-10-10--------6---8-8-8-6---6-555-33-2-33-55-6-5-|
g-10-10-10-10-------------------------------------------|
d-------------------------------------------------------|
a-------------------------------------------------------|
e-------------------------------------------------------|
No it doesnt rhyme with treatury
Nothing i never did
Measure out your honesty and
Things you keep in
Things they keep in
The truth is known the drums they roll
I loop the loop on the old banjo

Say no no no
Oh yeah yeah yeah
Oh maybe maybe maybe
I just dont care
e------------------------------------------| play few times
b-10b-10b-10b-10b-10b--------10-10-10---10-|
g-12b-12b-12b-12b-12b--------10-10-10---10-|
d---------------------10-h-12---------12---|
a------------------------------------------|
e------------------------------------------|


F
Some people run from trouble
C
Some people meet it half way
DM
Others are glad to pay
A#         A#m
Their cab fare over

And ?
Enjoy the company ?
What exactly do you mean
The truth be known the drums they roll
I loop the loop on the old banjo

Say no no no
Then said yeah yeah yeah
Oh maby maybe maybe
I just dont care
e------------------------------------------| play few times
b-10b-10b-10b-10b-10b--------10-10-10---10-|
g-12b-12b-12b-12b-12b--------10-10-10---10-|
d---------------------10-h-12---------12---|
a------------------------------------------|
e------------------------------------------|

solo. from live session.rough outline
e----------------------------------------------|
b----------------------------------------------|
g-10b--12-10-----------------------------------|
d-12b--------12-10------------------10-11-12---|
a-------------------12-10---10-11-12-----------|
e----------------------------------------------|

e---5-333-11-1-x3--11-33-5-3----------------------------|
b---6-555-33-2-x3--33-55-6-5----------------------------|
g-------------------------------------------------------|
d-------------------------------------------------------|
a-------------------------------------------------------|
e-------------------------------------------------------|

thats it! listen to the live version if your stuck.you will know what i mean
tabbed by stu.f  www.myspace.com/stu_f  boysintheband.co.uk forum member
Comments