Libertines - Bucket Shop Chords & Tabs

 

Bucket Shop Chords & Tabs

Libertines Chords & Tabs

Version: 2 Type: Tab 0 ratings
1 star 2 stars 3 stars 4 stars 5 stars
comments

Bucket Shop Tab

   
#----------------------------------PLEASE NOTE---------------------------------#
#This file is the author's own work and represents their interpretation of the #
#song. You may only use this file for private study, scholarship, or research. #
#------------------------------------------------------------------------------#

Libertines - Bucket Shop
°°°°°°°°°°°°°°°°°°°°°°°°°°°°
tabbed by m. jakob (mike@the-carpet.de)


intro
e|--------------0-------0---------
B|--------------0-------0---------
G|-------2-1----1-------5---------
D|-----------2--2-------6---------
A|-0-2-3--------x-------7---------
E|--------------x-------x---------

"riff1"
e|-5---5---5---5---5-----------------5--8--
B|-5---5---5---7---6-----------------5--8--
G|-5---5---5---5---5-----------------5--5--
D|-7---6---5---7---7-----------------7--7--
A|-7---7---7---5---5---7--5----------7--7--
E|-5---5---5---5---5---------8--7--5-5--5--

use riff1

use riff1
[ Tab from: http://www.guitartabs.cc/tabs/l/libertines/bucket_shop_tab_ver_2.html ]
G  G#  a
a--li--bis
    am2                 am/G#         am/G          am/F#
e|---------0---7--------7---0---------0---7---------0---6----------0-------------------------
B|-----0-----0--------0---0-------0-----0-------0-----0--------0-----0---0-------------------
G|---5---5----------5-----------5---5---------5---5----------5---5-----5---------------------
D|-7--------------6-----------5-------------4--------------3------------------2--0-----------
A|----------------------------------------------------------------------------------3--0-----
E|-------------------------------------------------------------------------------------------

e|-0-------0------0----
B|-0-------0------0----
G|-5-------5------5----
D|-7-------5------7----
A|-0-------0------0----
E|-x-------x------x----

all dirty small town girls+
e|-------------------0---0---0--
B|-------------------0---0---0--
G|--------2-----s5---5---5---5--
D|--2----------------7---5---7--
A|-------------------0---0---0--

                   

e|--------0--
B|---1----1--
G|-2---2-----
D|-----------
A|-----------
E|-----------

    

e|-0---
B|-0---
G|-5---
D|-6---
A|-7---
E|-x---

riff1 x2

use riff1 again



C/G#         
e|-0--
B|-3--
G|-0--
D|-0--
A|-2--
E|-x--

C/G2
e|-0--
B|-1--
G|-0--
D|-0--
A|-2--
E|-x--

took a lot of time and gin in teacups to tab that one...
for any further questions, don't hesitate to contact me. mike@the-carpet.de
if you got any songs to tab out, send me an email. I'll do it, 
as long as i like the song ;-)...
cheers, mike
Comments