Libertines - Boys In The Band Chords & Tabs

 

Boys In The Band Chords & Tabs

Libertines Chords & Tabs

Version: 1 Type: Tab

Boys In The Band Tab

   
-------------------------------------------------------------------------------------------------
Boys In The Band - The Libertines
-------------------------------------------------------------------------------------------------
 
Tabbed By: Butt-Rush (butt-rush@hotmail.co.uk) with help from Richard Edge
(richardedge804@hotmail.com)
Tuning:    EBGDAe (Standard)

/ = Slide
h = hammer-on
p = pull-off
b = bend
~ = vibrato (bend from side to side in the fret)

--------
This sounds pretty good, some parts are bass and I know my spacing for ends
of bars are quite dodgy but you'll get the picture.
--------

INTRO - 
Put your hand in a D# (6, 6, 8, 8, 8, 6) to play the intro
Guitar 1
e|---|--------------|-----------------|-----------------|-----------------|-----------------|  
A|---|----8-----8---|-----------------|-----------------|-----------------|-----------------|
D|---|------8----8--|-----8------8----|-----8------8----|-----8------8----|-----8------8----|
G|---|--8------8----|---8---8------8--|---8---8------8--|---8---8------8--|---8---8------8--|  
B|-6-|-6------------|-6---------6-----|-6---------6-----|-6---------6-----|-6---------6-----|
E|---|--------------|-----------------|-----------------|-----------------|-----------------|

Guitar 2
e|---|--------------|-----------------|-----------------|-----------------|-----------------|
A|---|--------------|-8---------------|-----------------|-8---------------|-----------------|
D|---|--------------|-8---------------|-----------------|-8---------------|-----------------|
G|---|--------------|-8---------------|-----------------|-8---------------|-----------------| 
B|-6-|--------------|-6---------------|-----------------|-6---------------|-6-6---6--6-6--6-|
E|---|--------------|-----------------|-----------------|-----------------|-----------------|
                    Fair enough, it's the bass but use it if you've got 2 guitars and no bass

Guitar 1
e|------------------|---------------------------|------------------|---------------------------|
A|------------------|---------------------------|------------------|---------------------------|
D|------------------|-8-8/11--11----8-8/11--11--|------------------|-8-8/11--11----8-8/11--11--|
G|----6--8--8b--8-6-|-8-8/11--11----8-8/11--11--|----6--8--8b--8-6-|-8-8/11--11----8-8/11--11--|
B|8-8---------------|-6-6/(9)-(9)---6-6/(9)-(9)-|8-8---------------|-6-6/(9)-(9)---6-6/(9)-(9)-|
E|------------------|---------------------------|------------------|---------------------------|

Guitar 2
e|------------------|---------------------------|------------------|---------------------------|
A|------------------|---------------------------|------------------|---------------------------|
D|------------------|---------------------------|------------------|---------------------------|
G|------------------|---------------------------|------------------|---------------------------|
B|8-8---------------|---------------------------|8-8---------------|---------------------------|
E|------------------|---------------------------|------------------|---------------------------|

--------------
Pre-Verse

Guitar 1
e|------------------|---------------------------|------------------|---------------------------|
A|------------------|---------------------------|------------------|---------------------------|
D|------------------|-8-8/11--11----8-8/11--11--|------------------|-8-8/11--11----8-8/11--11--|
G|----6--8--8b--8-6-|-8-8/11--11----8-8/11--11--|----6--8--8b--8-6-|-8-8/11--11----8-8/11--11--|
B|8-8---------------|-6-6/(9)-(9)---6-6/(9)-(9)-|8-8---------------|-6-6/(9)-(9)---6-6/(9)-(9)-|
E|------------------|---------------------------|------------------|---------------------------|

Guitar 2
e|--------8---8--8--|--------8----8--8---8--8---|--------8---8--8--|--------8----8--8---8--8---|
A|--------10--10-10-|--------10---10-10--10-10--|--------10--10-10-|--------10---10-10--10-10--|
D|2--2----10--10-10-|2--2----10---10-10--10-10--|2--2----10--10-10-|2--2----10---10-10--10-10--|
G|3--3----10--10-10-|3--3----10---10-10--10-10--|3--3----10--10-10-|3--3----10---10-10--10-10--|
B|3--3--------------|3--3-----------------------|3--3--------------|3--3-----------------------|
E|1--1--------------|1--1-----------------------|1--1--------------|1--1-----------------------|

--------
VERSE 1:

Guitar 1
e|------------------|---------------|---------------|---------------|
A|------------------|---------------|---------------|---------------|
D|------------------|---------------|---------------|---------------|
G|------------------|----6-8-8b-8-6-|----6-8-8b-8-6-|----6-8-8b-8-6-|
B|------------------|8-8------------|8-8------------|8-8------------|
E|------------------|---------------|---------------|---------------|

Guitar 2
e|------------------|-----8--8--8---|-----8--8--8---|---------------|
A|------------------|-----10-10-10--|-----10-10-10--|---------------|
D|------------------|2-2--10-10-10--|2-2--10-10-10--|2-2--2b--2b-2b-|
G|------------------|3-3--10-10-10--|3-3--10-10-10--|3-3--3b--3b-2b-|
B|------------------|3-3------------|3-3------------|3-3--3b--3b-2b-|
E|------------------|1-1------------|1-1------------|1-1--1---1--1--|
                                                 
You're ............ light           You're ......every night   But I've


Guitar 1&2
e|-----------------|-----------------|-----------------|-----------------|
A|-----------------|-5-5-5-5-5-5-5-5-|-----------------|-6-------6-------|
D|-6-6-6-6-6-6-6-6-|-5-5-5-5-5-5-5-5-|-5-5-5-5-5-5-5-5-|-7-------7-------|
G|-8-8-8-8-8-8-8-8-|-5-5-5-5-5-5-5-5-|-7-7-7-7-7-7-7-7-|-7-------7-------|
B|-8-8-8-8-8-8-8-8-|-3-3-3-3-3-3-3-3-|-7-7-7-7-7-7-7-7-|-5-------5-------|
E|-6-6-6-6-6-6-6-6-|-----------------|-5-5-5-5-5-5-5-5-|-----------------|
  never... dance    never.... sing    How can... mean    sin-----gle


[ Tab from: http://www.guitartabs.cc/tabs/l/libertines/boys_in_the_band_tab.html ]
e|-----------------|----faster-------|-1---------------|-2-------7-------|
A|-5---------------|-5-5-5-5-5-5-5-5-|-1---------------|---3-------8-----|
D|-5---------------|-5-5-5-5-5-5-5-5-|-2---------------|-----4/------9---|
G|-5---------------|-5-5-5-5-5-5-5-5-|-3---------------|-----------------|
B|-3---------------|-3-3-3-3-3-3-3-3-|-3---------------|-----------------|
E|-----------------|-----------------|-----------------|-----------------|
   thing                               Its...rudimentary

--------
PRE-VERSE

VERSE 2

--------

CHORUS:

Guitar 1&2
e|-----------------|-----------------|-----------------|---Quick mutes---|
A|-----------------|-----------------|(3-3-3-3-3---3--)|-----------------|
D|-2-2-2-2-2-2-2-2-|-5-5-5-5-5-5-5-5-|-2-2-2-2-2---2---|-2---2---2---2---|
G|-3-3-3-3-3-3-3-3-|-7-7-7-7-7-7-7-7-|-0-0-0-0-0---0---|-3---3---3---3---|
B|-3-3-3-3-3-3-3-3-|-7-7-7-7-7-7-7-7-|-----------------|-3---3---3---3---|
E|-1-1-1-1-1-1-1-1-|-5-5-5-5-5-5-5-5-|-----------------|-1---1---1---1---|
  baby...............feel.............I.....roll   of a limousine wheel



e|-----------------|-----------------|-----------------|-----------------|
A|-----------------|-1---1---1---1---|-3---3---3---3---|-5---5---5---5---|
D|-2---2---2---2---|-2---2---2---2---|-3---3---3---3---|-5---5---5---5---|
G|-3---3---3---3---|-2---2---2---2---|-3---3---3---3---|-5---5---5---5---|
B|-3---3---3---3---|-----------------|-1---1---1---1---|-3---3---3---3---|
E|-1---1---1---1---|-----------------|-----------------|-----------------|
  and they..........out...............     for...........band


e|-----------------|-----------------|-----------------|-----------------|
A|-----------------|-1-1-1-1-1-1-1-1-|-3-3-3-3-3-3-3-3/|-5-5-5-5-5-5-5/6\|
D|-2-2-2-2-2-2-2-2-|-2-2-2-2-2-2-2-2-|-3-3-3-3-3-3-3-3/|-5-5-5-5-5-5-5/6\|
G|-3-3-3-3-3-3-3-3-|-2-2-2-2-2-2-2-2-|-3-3-3-3-3-3-3-3/|-5-5-5-5-5-5-5/6\|
B|-3-3-3-3-3-3-3-3-|-----------------|-1-1-1-1-1-1-1-1/|-3-3-3-3-3-3-3/4\|
E|-1-1-1-1-1-1-1-1-|-----------------|-----------------|-----------------|
  they..............shout...............  for...........band

-------------
Bridge

Guitar 1
e|---------------|
A|---------------|
D|---------------|
G|----6-8-8b-8-6-|
B|8-8------------|
E|---------------|

-------

PRE VERSE

VERSE 3

--------

CHORUS:

BRIDGE 2
Follows straight on

Guitar 1
                 
e|-----------------|-----------------|
A|-5-5-5-5-5-5-5-5-|-6-/-5-/-4-/-3---|
D|-5-5-5-5-5-5-5-5-|-6-/-5-/-4-/-3---|
G|-5-5-5-5-5-5-5-5-|-6-/-5-/-4-/-3---|
B|-3-3-3-3-3-3-3-3-|-4-/-3-/-2-/-1---|
E|-----------------|-----------------|


Guitar 2
                 
e|-----------------|-----------------|
A|-5-5-5-5-5-5-5-5-|-6---5---4---3---|
D|-5-5-5-5-5-5-5-5-|-6---5---4---3---|
G|-5-5-5-5-5-5-5-5-|-6---5---4---3---|
B|-3-3-3-3-3-3-3-3-|-4---3---2---1---|
E|-----------------|-----------------|



--------

SOLO:  Not really sure, something like this

Guitar 1

e|---------------|---------------|---------------|---------------|
A|---------------|---------------|---------------|---------------|
D|---------------|---------------|---------------|---------------|
G|---------------|----6-8-8b-8-6-|---------------|----6-8-8b-8-6-|
B|8-8-----8-8----|8-8------------|8-8-----8-8----|8-8------------|
E|---------------|---------------|---------------|---------------|

e|---------------|$--------------|---------------|---------------|
A|---------------|$--------------|---------------|---------------|
D|---------------|$--------------|-mess around---|-Same again----|
G|---------------|$--------------|-with bends----|---------------|
B|8-8-----8-8----|$8---b---------|-8b---8---8b---|---------------|
E|---------------|$--------------|---------------|---------------|



The $'s meet up for both guitars

Guitar 2

e|---1--1-x-/-11--11-x-x-x-x-x--1--1-x-/-12--12-x-x-x-x-x--1--1-x-/-11--11-x-x-x-x-x--1-$
B|---1--1-x-/-13--13-x-x-x-x-x--1--1-x-/-14--14-x-x-x-x-x--1--1-x-/-11--11-x-x-x-x-x--1-$
G|---2--2-x-/-13--13-x-x-x-x-x--1--1-x-/-14--14-x-x-x-x-x--1--1-x-/-11--11-x-x-x-x-x--1-$
D|---3--3-x-/-13--13-x-x-x-x-x--1--1-x-/-14--14-x-x-x-x-x--1--1-x-/-11--11-x-x-x-x-x--1-$
A|---3--3-x-/-11--11-x-x-x-x-x--1--1-x-/-12--12-x-x-x-x-x--1--1-x-/-11--11-x-x-x-x-x--1-$
E|---1--1-x-/-11--11-x-x-x-x-x--1--1-x-/-12--12-x-x-x-x-x--1--1-x-/-11--11-x-x-x-x-x--1-$



e|---------------------------------------------------------------------------------------
B|---13----13----------------------------------------------------------------------------
G|---15b17-15b17--15-15-13--------13----13----13----15p14p13-15p14p13-15p14p13-15p14p13--
D|--------------------------15~~~~---15----15----15--------------------------------------
A|---------------------------------------------------------------------------------------
E|---------------------------------------------------------------------------------------

e|--------------------------------------------------------------
B|---13----13--13----13--13----13-13-13-13-13-13-13-------------
G|---15b17-----15b17-----15b17----15-15-15-15-15-15--13~~~~/0---
D|--------------------------------------------------------------
A|--------------------------------------------------------------
E|--------------------------------------------------------------

--------
BRIDGE 3

GUITAR 1

e|----------------|1--------------|
A|----1-------1---|1--------------|
D|2-2-2-2-2-2-2-2-|2--------------|
G|3-3-3-3-3-3-3-3-|3--------------|
B|3-3-3-3-3-3-3-3-|3--------------|
E|1-1---1-1-1---1-|1--------------|

e|----------------|---------------|
A|----1-------1---|---------------|
D|2-2-2-2-2-2-2-2-|---------------|
G|3-3-3-3-3-3-3-3-|----6-8-8b-8-6-|
B|3-3-3-3-3-3-3-3/|8-8------------|
E|1-1---1-1-1---1-|---------------|

----------
CHORUS X 2
----------

BRIDGE 3

END ON

e|1------8-------|
A|1------10------|
D|2------10------|
G|3------10------|
B|3------8-------|
E|1--------------|