Libertines - Arbeit Macht Frei Chords & Tabs

 

Arbeit Macht Frei Chords & Tabs

Libertines Chords & Tabs

Version: 1 Type: Tab 0 ratings
1 star 2 stars 3 stars 4 stars 5 stars
comments

Arbeit Macht Frei Tab

-------------------------------------------------------------------------
Song:Arbeit Match Freir
Artist:The Libertines
Album:The Libertines
Tabber:Alexthebeatle 
-------------------------------------------------------------------------


|--------------|--------------|--------------|--------------|
|--------------|--------------|--------------|--------------|
|--------------|--------------|--------------|--------------|
|-----2--------|-----2--------|-----2--------|-----2--------|
|--2--0--2--2--|--2--0--2--2--|--2--0--2--2--|--2--0--2-----|
|--3-----3--0--|--3-----3--0--|--3-----3--0--|--3-----3-----|

|-----------------------------------------|
|-----------------------------------------|
|-----------------------------------------| 
|--------------2-2----------------2-2-----| 
|--2-2-2-2-2-2-0-0-2--2-2-2-2-2-2-0-0-2---| 
|--0-0-0-0-3-3-----3--0-0-0-0-3-3-----3---| 

|--------------------------|
|--------------------------|
|--------------------------| 
|--------------2-2---------| 
|--2-2-2-2-2-2-0-0-2-2-----| 
|--0-0-0-0-3-3-----3-0-----| 

 
  Roll a             gasper
|-----------------------------------------|
|-----------------------------------------|
|-----------------------------------------| 
|--------------2-2----------------2-2-----| 
|--2-2-2-2-2-2-0-0-2--2-2-2-2-2-2-0-0-2---| 
|--0-0-0-0-3-3-----3--0-0-0-0-3-3-----3---| 


 The guard ...        but he has... 
|-----------------------------------------|
|-----------------------------------------| 
|--------------2-2----------------2-2-----| 
|--2-2-2-2-2-2-0-0-2--2-2-2-2-2-2-0-0-2---| 
|--0-0-0-0-3-3-----3--0-0-0-0-3-3-----3---| 
|-----------------------------------------|


..die                  people to die
|-----------------------------------------|
|-----------------------------------------|
|-----------------------------------------| 
|--------------2-2----------------2-2-----| 
|--2-2-2-2-2-2-0-0-2--2-2-2-2-2-2-0-0-2---| 
|--0-0-0-0-3-3-----3--0-0-0-0-3-3-----3---| 


 And the gate read:     
|-----------------------------------------|
|-----------------------------------------|
|-----------------------------------------| 
|--4-4-4-4-4-4-4-4-4----------------------| 
|--2-2-2-2-2-2-2-2-2----------------------| 
|-----------------------------------------| 

Arbeit macht frei
           |------------------------|
           |------------------------|
           |------------------------|  
           |--------------2-2-------| 
           |--2-2-2-2-2-2-0-0-2--2--| 
           |--0-0-0-0-3-3-----3--0--| 


In her rollers        And gasper
     |-----------------------------------------|
     |-----------------------------------------|
     |-----------------------------------------| 
     |--------------2-2----------------2-2-----| 
     |--2-2-2-2-2-2-0-0-2--2-2-2-2-2-2-0-0-2---| 
     |--0-0-0-0-3-3-----3--0-0-0-0-3-3-----3---| 

[ Tab from: http://www.guitartabs.cc/tabs/l/libertines/arbeit_macht_frei_tab.html ]
Cleaning the... where no policeman...
|-----------------------------------------|
|-----------------------------------------| 
|--------------2-2----------------2-2-----| 
|--2-2-2-2-2-2-0-0-2--2-2-2-2-2-2-0-0-2---| 
|--0-0-0-0-3-3-----3--0-0-0-0-3-3-----3---| 
|-----------------------------------------|

..the beat                           for her
   |-----------------------------------------|
   |-----------------------------------------|
   |-----------------------------------------| 
   |--------------2-2----------------2-2-----| 
   |--2-2-2-2-2-2-0-0-2--2-2-2-2-2-2-0-0-2---| 
   |--0-0-0-0-3-3-----3--0-0-0-0-3-3-----3---| 


old men
|-----------------------------------------|
|-----------------------------------------|
|-----------------------------------------| 
|--4-4-4-4-4-4-4-4-4----------------------| 
|--2-2-2-2-2-2-2-2-2----------------------| 
|-----------------------------------------| 


He don't like blacks or queers                        yet he's
                     |-----------------------------------------|
                     |-----------------------------------------|
                     |-----------------------------------------| 
                     |--------------2-2----------------2-2-----| 
                     |--2-2-2-2-2-2-0-0-2--2-2-2-2-2-2-0-0-2---| 
                     |--0-0-0-0-3-3-----3--0-0-0-0-3-3-----3---| 


  proud he beat the nazis?        a queer
|-----------------------------------------|
|-----------------------------------------|
|-----------------------------------------| 
|--4-4-4-4-4-4-4-4-4----------------------| 
|--2-2-2-2-2-2-2-2-2----------------------| 
|-----------------------------------------| 


|-----------------------------------------|
|-----------------------------------------|
|-----------------------------------------| 
|--------------2-2----------------2-2-----| 
|--2-2-2-2-2-2-0-0-2--2-2-2-2-2-2-0-0-2---| 
|--0-0-0-0-3-3-----3--0-0-0-0-3-3-----3---| 

|-----------------------------------------|
|-----------------------------------------|
|-----------------------------------------| 
|--------------2-2----------------2-2-----| 
|--2-2-2-2-2-2-0-0-2--2-2-2-2-2-2-0-0-2---| 
|--0-0-0-0-3-3-----3--0-0-0-0-3-3-----3---| 

|-----------------------------------------|
|-----------------------------------------| 
|--------------2-2----------------2-2-----| 
|--2-2-2-2-2-2-0-0-2--2-2-2-2-2-2-0-0-2---| 
|--0-0-0-0-3-3-----3--0-0-0-0-3-3-----3---| 
|-----------------------------------------|

|-----------------------------------------|
|-----------------------------------------|
|-----------------------------------------| 
|--------------2-2----------------2-2-----| 
|--2-2-2-2-2-2-0-0-2--2-2-2-2-2-2-0-0-2---| 
|--0-0-0-0-3-3-----3--0-0-0-0-3-3-----3---| 

  
                      Arbeit Macht Frei
|-----------------------------------------------------------|
|-----------------------------------------------------------|
|-----------------------------------------------------------| 
|--4-4-4-4-4-4-4-4-4----------------------------2-2---------| 
|--2-2-2-2-2-2-2-2-2----------------2-2-2-2-2-2-0-0-2-2-----| 
|-----------------------------------0-0-0-0-3-3-----3-0-----|
Comments