Liberats - Avante Garde Chords & Tabs

 

Avante Garde Chords & Tabs

Liberats Chords & Tabs

Version: 1 Type: Tab 0 ratings
1 star 2 stars 3 stars 4 stars 5 stars
comments

Avante Garde Tab

   
Band: The Liberats
song: Avant Garde

Tabber: John Cukras
email: riffreaper@yahoo.com

tuning: normal

Intro:
E----------------------------------|
B----------------------------------|
G----------------------------------|
D----------------------------------|
A-77--55--33--55--77--55--33--5555-|
E-55--33--11--33--55--33--11--3333-|

Riff 1:    A                                            B
E-----------------------------------------------|---------------------------------------------------|
B-----------------------------------------------|---------------------------------------------------|
G-----------------------------------------------|---------------------------------------------------|
D-----------------------------------------------|----------------------------------9-99-9-9-99-9-9--|
A-77777-101010-55555-77777-33333-77777-5--------|-77777-110010-99999--77777-101010------------------|
E-55555-88888--33333-55555-11111-55555-3 x's 2--|-55555-88888--77777--55555-88888-------------------|

Riff 1
[ Tab from: http://www.guitartabs.cc/tabs/l/liberats/avante_garde_tab.html ]
Riff 2:        A                                B
E-----------------------------------------|-------------------------------------------|
B-----------------------------------------|-------------------------------------------|
G-----------------------------------------|-------------------------------------------|
D-----------------------------------------|-------------------------------------------|
A-7------7-10------10-12------12-15151515-|-777777-101010-12121212-151515151515-------|
E-5-0000-5-8--0000-8--10-0000-10-13131313-|-555555-888888-10101010-131313131313 x's 2-|
pm  ....      ....       ....

Riff 1: B

Bass

Riff 2: B

Riff 2: B (under solo) Till End.

Solo:
E----------------------------------------------------------------------------------|
B----------------------------------------------------------------------------------|
G-7/9-999999999-9/12-1212121212-16^^^ x's 2--6/8-----6/8------6/8------16^---------|
D------------------------------------------------9/7------9/7-----9/7------- x's 3-|
A----------------------------------------------------------------------------------|
E----------------------------------------------------------------------------------|
Comments