Liars Academy - Nightlight Chords & Tabs

 

Nightlight Chords & Tabs

Liars Academy Chords & Tabs

Version: 1 Type: Tab 0 ratings
1 star 2 stars 3 stars 4 stars 5 stars
comments

Nightlight Tab

Liars Academy
Nightlight  
Tanner again moa

 Intro/Verse:
|---------------------------------------------------|
|---------------------------------------------------|
|-55-5-5555--------------------------5/7-7----------|
|-55-5-5555--3333--77-7-7777--5555------------------|
|-33-3-3333--3333--77-7-7777--5555------------------|
|------------1111--55-5-5555--3333------------------|
 pm.               ..

 Chorus:
|---------------------------------------------------|
|--------------------------------------------8p5----|
|-55555555-------------------------------7p5-----5--|
|-55555555--3333333--55-55555--7777777--------------|
|-33333333--3333333--55-55555--7777777--------------|
|-----------1111111--33-33333--5555555--------------|
                     ..
[ Tab from: http://www.guitartabs.cc/tabs/l/liars_academy/nightlight_tab.html ]
 Riff3 X1                      X3                The last time Gt2 plays:
|---------------------|-------------------|-----------------------|
|---------------------|-------------------|-----------------------|
|-5----------------5--|-5-----------------|-5-77-99-12~-----------|
|-5-55-22-7-3--5/7---5|-5-55-22-7-3333333-|-x-xx-xx-x-------------|
|-3-55-22-7-3---------|-3-55-22-7-3333333-|-3-55-77-10~-----------|
|---33-00-5-1---------|---33-00-5-1111111-|-----------------------|
                                   ......
 Solo:
|-----------------------------------------------------------------|
|----------5-5-8-8p5--5/3-5p3------------------5-5-8p5-------8----|
|--5-5-5h7----------7---------5-5---5-5-5-5-5h7---------7-7-5---5~|
|-----------------------------------------------------------------|
|-----------------------------------------------------------------|
|-----------------------------------------------------------------|
 
 Mini Interlude/Riff after solo
|---------------------------------------------------|
|---------------------------------------------------|
|-7p5-7p5-7p5-7--7p5-7p5-7p5-7----------------------|
|---------------------------------------------------|
|---------------------------------------------------|
|---------------------------------------------------|
 
 Outro:
|--------------------|
|--------------------|
|-5~-----------------|
|-5~-55~-22~-7~-3~---|
|-3~-55~-22~-7~-3~---|
|----33~-00~-5~-1~---|

Intro/Verse X4
Chorus      X1
Intro/Verse X3
Chorus      X1
Intro/Verse X1
Riff3       X1
Solo        X1
Mini Riff   X1
Chorus      X2
Outro       X1

WOOT WOOT thats number two for me, the song was hard to tab even though its an easy song, go figure 
PEACE
Comments