Liam Lynch - United States Of Whatever Chords & Tabs

 

United States Of Whatever Chords & Tabs

Liam Lynch Chords & Tabs

Version: 4 Type: Tab 0 ratings
1 star 2 stars 3 stars 4 stars 5 stars
comments

United States Of Whatever Tab

Liam Lynch,United States Of Whatever

This Song is Only 2 main Riffs But cool

Verse (x3)

 x2

E--------------------------------------
B--------------------------------------
G--------------------------------------
D--------------------------------------
A-----5--6--7-7-7-7-7------------------
E--0--3--4--5-5-5-5-5------------------

x1

E--------------------------------------
B--------------------------------------
G--------------------------------------
D--------------------------------------
A-------5----7------------------------
E--0----3----5------------------------
[ Tab from: http://www.guitartabs.cc/tabs/l/liam_lynch/united_states_of_whatever_tab_ver_4.html ]
Chorus (x3)

x1
 "my united states of whatever"
E--------------------------------------
B--------------------------------------
G--------------------------------------
D--------------------------------------
A-----10-10-10-10---9-9-9-9------------
E-----8--8--8--8----7-7-7-7------------

x2

E--------------------------------------
B--------------------------------------
G--------------------------------------
D--------------------------------------
A-----5--6--7-7-7-7-7------------------
E--0--3--4--5-5-5-5-5------------------

Verse (x3)(second time repeat riff 4 times)
Chorus(x2)
Comments