Liam Lynch - United States Of Whatever Chords & Tabs

 

United States Of Whatever Chords & Tabs

Liam Lynch Chords & Tabs

Version: 1 Type: Tab 2 ratings
1 star 2 stars 3 stars 4 stars 5 stars
comments

United States Of Whatever Tab

Liam Lynch - United States of Whatever
tabbed by: Dave Tyson (Wolfman_from_hell@hotmail.com)
this is great little song to listen to, and if you have the same distortion he has, its a great
little song to play too.



Main Riff

|-----------------------------------------
|-----------------------------------------
|-----------------------------------------
|-2-5-6-7-7-7-7-7-2-5-6-7-7-7-7-7-2-5-6-7-
|-2-5-6-7-7-7-7-7-2-5-6-7-7-7-7-7-2-5-6-7-
|-0-3-4-5-5-5-5-5-0-3-4-5-5-5-5-5-0-3-4-5-

Chorus
[ Tab from: http://www.guitartabs.cc/tabs/l/liam_lynch/united_states_of_whatever_tab.html ]
|-------------------------------------
|-------------------------------------
|-------------------------------------
|-------------------------------------
|-2-5-6-7-7-7-7-7-2-5-6-7-7-7-7-7-2-5-
|-0-3-4-5-5-5-5-5-0-3-4-5-5-5-5-5-0-3-

|-----------------------------------------
|-----------------------------------------
|-----------------------------------------
|-10-10-10-10-10-10-10-10-9-9-9-9-9-9-9-9-
|-10-10-10-10-10-10-10-10-9-9-9-9-9-9-9-9-
|-8--8--8--8--8--8--8--8--7-7-7-7-7-7-7-7-

Sorry No lyrics but he talks so its not hard to figure out.
Comments