Liam Lynch - United States Of Whatever Chords & Tabs

 

United States Of Whatever Chords & Tabs

Liam Lynch Chords & Tabs

Version: 1 Type: Bass Tab 0 ratings
1 star 2 stars 3 stars 4 stars 5 stars
comments

United States Of Whatever Bass Tab

   
It is so easy to play:

(Talking)

G|-----------------------------
D|-----------------------------
A|-----------------------------
E|0-3-4-55555-0-3-4-55555-0-3-4

(Talking)

G|-----------------------------
D|-----------------------------
A|-----------------------------
E|0-3-4-55555-0-3-4-55555-0-3-4

(Talking)

G|-----------------------------
D|-----------------------------
A|-----------------------------
E|0-3-4-55555-0-3-4-55555-0-3-4

Chorus

G|------------------------------------------
D|------------------------------------------
E|3-3-3-3-----------------------------------
A|-------3-3-3-0-3-4-55555-0-3-4-55555-0-3-4
[ Tab from: http://www.guitartabs.cc/tabs/l/liam_lynch/united_states_of_whatever_btab.html ]
G|------------------------------------------
D|------------------------------------------
E|3-3-3-3-----------------------------------
A|-------3-3-3-0-3-4-55555-0-3-4-55555-0-3-4

G|------------------------------------------
D|------------------------------------------
E|3-3-3-3-----------------------------------
A|-------3-3-3-0-3-4-55555-0-3-4-55555-0-3-4

(Talking)

G|-----------------------------
D|-----------------------------
A|-----------------------------
E|0-3-4-55555-0-3-4-55555-0-3-4

(Talking)

G|-----------------------------
D|-----------------------------
A|-----------------------------
E|0-3-4-55555-0-3-4-55555-0-3-4

(Talking)

G|-----------------------------
D|-----------------------------
A|-----------------------------
E|0-3-4-55555-0-3-4-55555-0-3-4

I think this is right.
Comments