Liam Hall Of Margate Tasmania Aus. - Yeh Chords & Tabs

 

Yeh Chords & Tabs

Liam Hall Of Margate Tasmania Aus. Chords & Tabs

Version: 1 Type: Tab 1 rating
1 star 2 stars 3 stars 4 stars 5 stars
comments

Yeh Tab

   
song: yeh
artist : liam hall of margate, tasmania aus.

use up and down strokes the whole song
riff 1

-------------------------------
-------------------------------
-------------------------------        play that four times 
------------------5-5-5-5-------
--9-9-9-9-7-7-7-7-3-3-3-3-3-3-3-3
--7-7-7-7-5-5-5-5---------1-1-1-1

riff 2

--------------------------
--------------------------
--------------------------             play that four times
--------------------------
--7-7-7-7--5-5-5-5-9-9-9-9
--5-5-5-5--3-3-3-3-7-7-7-7

riff 3
[ Tab from: http://www.guitartabs.cc/tabs/l/liam_hall_of_margate_tasmania_aus/yeh_tab.html ]
-------------------------------------------
-------------------------------------------
-------------------------------------------     play twice
-------------------5-5-5-5-----------------
--3-3-3-3--5-5-5-5-3-3-3-3-7-7-7-7-5-5-5-5-
--1-1-1-1--3-3-3-3---------5-5-5-5-3-3-3-3-

riff 3/ interlude

-------------------------------------------------
-------------------------------------------------
-------------------------------------------------
------------------5-5-5-5---------5-5-5-5--------      play once
--3-3-3-3-5-5-5-5-3-3-3-3-5-5-5-5-3-3-3-3-3-3-3-3
--1-1-1-1-3-3-3-3---------3-3-3-3---------5-5-5-5

chorus:

am am am am  c c c c g g g g d d d d

riff 1     play four times

riff 2     play four times

riff 3     play twice

riff 3/interlude  play once

chorus

riff 1

and thats it, really easy, sounds funky
any comments to liamhall002@hotmail.com.uk

HAVE FUN!
Comments