Lfo - Every Other Time Chords & Tabs

 

Every Other Time Chords & Tabs

Lfo Chords & Tabs

Version: 4 Type: Tab 0 ratings
1 star 2 stars 3 stars 4 stars 5 stars
comments

Every Other Time Tab

   
Every Other Time by LFO
(Tabbed by Brent Doucette)


----------------------------------------
The Europop Chords & Tablature Archive
http://europop2000.tripod.com
---------------------------------------


Standard Tuning

Chords:
B  |X24442
F# |244322
G#m|466444
E  |022100


Intro Lick
E|-------------------------------------------------------
B|----0----0-------0----0-------0----0-------0--------0--
G|-11---11---11/13---13---13/16---16---16-15---15-13-----
D|-------------------------------------------------------
A|-------------------------------------------------------
E|-------------------------------------------------------

E|-------------------------------------------------------
B|----0----0-------0----0---0---0------------------------
G|-11---11---11/13---13---8---8-8/11---------------------
D|-------------------------------------------------------
A|-------------------------------------------------------
E|-------------------------------------------------------

Play That lick over B, F#, G#m, E

*VERSE1*
[ Tab from: http://www.guitartabs.cc/tabs/l/lfo/every_other_time_tab_ver_4.html ]
Come on!
Na na na na na.....(X2)
              B           F#
I said let's Talk About it, 
         G#m          E                    B
As she walked out on me and slammed the door.
             		F#
But I just laugh about it, 
	      G#m     E           B
Cause shes always playing those games. (come on!)
			    F#
Deep down I know She Loves Me,
		  G#m          E                B
But she's got a funny way of showin me how she cares (she cares)
                                   F#
Last night she did a donut on my lawn
               G#m           E
Then drove out free while fingering her hair , Oh yeah


*CHORUS*
                 B                     F#
Sometimes it's black, Sometimes it's White
                 G#m                 E
Sometimes She's Wrong, Somtimes Im right
               B                    F#
Sometimes we talk about it, oh we figure it out
      E
But then she just change her mind
                 B                 F#
Sometimes she's hot, sometimes Im cold
              G#m            E
Sometimes My head wants to explode
             B                F#               E
But when I think about it, Im so in love with her
N/C
Every Other Time 

(na na na na na na na na na na na na na.....)
		yeah, Every other Time!

(na na na na na na na na na na na na na.....)
		every-every other time!

*VERSE2*

Sometimes we sit around,

Just the two of us on the park bench

Sometimes we swim around,

Like two dophins in the ocean of our hearts.

But then I think about the time when we broke up before the prom

and you told everyone that I was gay, OK

Sometimes I walk around the town but that was just to settle down

but I take you back but you kick me down

cause thats the way uh-huh uh-huh I like it*CHORUS*
*INTRO LICK*

*INTERLUDE*

Keep it up home girl, dont you quit

you know the way you scream is the ultimate

And when I walk away just watch the cloud

I bet I dont even get around the Block

I said let's Talk About it, 

As she walked out on me and slammed the door.

One Day We'll laugh about it, 

Cause we're always playing those games.


*CHORUS*
*INTERLUDE FADE OUT*
Comments