Lfo - Every Other Time Complete Chords & Tabs

 

Every Other Time Complete Chords & Tabs

Lfo Chords & Tabs

Version: 1 Type: Tab 0 ratings
1 star 2 stars 3 stars 4 stars 5 stars
comments

Every Other Time Complete Tab

   
Every Other Time
LFO
Standard Tuning

This is the complete version. The others have the intro, but I figured
out the REST of the song.

Electric
This guitar is what you mostly hear, but there is an acoustic filling
in the full chord

Intro: (the picking's fast, but this is EXACTLY AS IT'S PLAYED!!!)
E-2---2---4---4---7---7-6---6-4-2---2---4---4---------2-
b---0---0---0---0---0-----0-------0---0---0---0-4---4---
g-------------------------------------------------4-----
d-------------------------------------------------------
a-------------------------------------------------------
e-------------------------------------------------------
[ Tab from: http://www.guitartabs.cc/tabs/l/lfo/every_other_time_complete_tab.html ]
Intro:(part 2, "Na na na na" part)/Verses
(listen to cd from strumming)
E--------- | 
b--------- |
g---------.|
d---------.|
a-9-4-6-2- |
e-7-2-4-0- |

Chorus:
(listen to cd for struming)
E--------------- |
b--------------- |
g---------------.|
d---------------.|
a-9-4-6-2-9-4-2- |
e-7-2-4-0-7-2-0- |

Acoutstic Part
This is the back-up part

Intro (both halfs)/Verses (even the solo verse):
(listen to cd for strumming)
e-7-2-4-0- |
b-7-2-4-0- |
g-5-3-4-1-.|
d-9-4-6-2-.|
a-9-4-6-2- |
e-7-2-4-0- | 

Chorus:
e-7-2-4-0-7-2-0- |
b-7-2-4-0-7-2-0- |
g-6-3-4-1-6-3-1-.|
d-9-4-6-2-9-4-2-.|
a-9-4-6-2-9-4-2- |
e-7-2-4-0-7-2-0- |

that's all folks
Comments