Lewis Donna - I Love You Always Forever Chords & Tabs

 

I Love You Always Forever Chords & Tabs

Lewis Donna Chords & Tabs

Version: 1 Type: Bass Tab 0 ratings
1 star 2 stars 3 stars 4 stars 5 stars
comments

I Love You Always Forever Bass Tab

DONNA LEWIS - "I Love You Always Forever" - Bass Tab

Common Time(4/4)
Standard Tuning(EADG)

INTRO:
                                        (x3)
|-----------|-9-------|-10-------|----------|---------|---------|
|*-10-------|---------|----------|-8-------*|-7-------|-5-------|
|*----------|---------|----------|---------*|---------|---------|
|-----------|---------|----------|----------|---------|---------|
   1  2 3 4   1 2 3 4   1  2 3 4   1 2 3 4    1 2 3 4   1 2 3 4

|---------|---------|
|-3-------|---------|
|---------|---------|
|---------|---------|
  1 2 3 4   1 2 3 4
[ Tab from: http://www.guitartabs.cc/tabs/l/lewis_donna/i_love_you_always_forever_btab.html ]
VERSES:
|-----------|---------|---------|----------|
|*----------|-2-------|-3-------|---------*|
|*-3--------|---------|---------|-1-------*|
|-----------|---------|---------|----------|
   1 2 3 4    1 2 3 4   1 2 3 4   1 2 3 4   

CHORUS:
|-----------|
|*---------*|
|*-3-------*| (x8)
|-----------|
   1 2 3 4

INTERLUDE:
|-----------|----------|---------|---------|------------|
|*---------*|*---------|-2-------|-3-------|-3-2-.-.---*|
|*-r-e-s-t-*|*-3-------|---------|---------|-----3-3-r-*|
|-----------|----------|---------|---------|------------|
   1 2 3 4     1 2 3 4   1 2 3 4   1 2 3 4   1 2 3 & 4

By: Johari Taylor
E-mail: johari@goconnect.net or viking@powerup.com.au
More Bass Tabs: http://www.powerup.com.au/~viking/basstab.htm

Comments