Leviathan - Ballad Of Kurt Cobain Chords & Tabs

 

Ballad Of Kurt Cobain Chords & Tabs

Leviathan Chords & Tabs

Version: 1 Type: Tab 0 ratings
1 star 2 stars 3 stars 4 stars 5 stars
comments

Ballad Of Kurt Cobain Tab

Sup everyone out there, this is Leviathans best song, I think
and this is exactlly how to play it
ok here it is

Artist: Leviathan
Song:   Ballad of Kurt Cobain
Tunning:Standard
[ Tab from: http://www.guitartabs.cc/tabs/l/leviathan/ballad_of_kurt_cobain_tab.html ]
E----------------------------------
B----------------------------------
G----------------------------------
D---2------------------------------
A---2-3-2-0--(x8)------------------
E--0-------------------------------

E--------------------------------------
B--------------------------------------
G--------------------------------------
D--9-9-9-9-7-7-7-7--10-10-10-10-6-6-6-6
A--9-9-9-9-7-7-7-7--10-10-10-10-6-6-6-6
E--7-7-7-7-5-5-5-5---9--9--9--9-4-4-4-4

Yeah, that song ROCKS!!!!
Any questions, E-mail me at Nirvana1585@aol.com
For more info on LEVIATHAN e-mail me!!!
Comments