Levellers - Julie Chords & Tabs

 

Julie Chords & Tabs

Levellers Chords & Tabs

Version: 2 Type: Bass Tab 0 ratings
1 star 2 stars 3 stars 4 stars 5 stars
comments

Julie Bass Tab

   
------------------------------
LEVELLERS  -  JULIE
-------------------

DE-TUNE E TO D


INTRO:
G|--------|--------|--------|--------|
D|0-0-0-0-|0-0-0-0-|--0-0-0-|0-0-0-0-|
A|--------|--------|--------|--------|
D|--------|--------|0-------|--------|


VERSE 1:
G|--------|--------|--------|--------|--------|--------|--------|--------|
D|--0-0-0-|0-0-0-0-|--0-0-0-|0-0-0-0-|0-0-0-0-|--0-0-0-|0-0-0-0-|--0-0-0-|
A|--------|--------|--------|--------|--------|--------|--------|--------|
D|0-------|--------|0-------|--------|--------|0-------|--------|0-------|
  Julie was a lonely girl..


G|--------|--------|--------|--------|--2---2-|--------|--2---2-|--------|
D|0-0-0-0-|--0-0-0-|0-0-0-0-|--0-0-0-|--------|0-0-0-0-|--------|0-0-0-0-|
A|--------|--------|--------|--------|----0---|--------|----0---|--------|
D|--------|0-------|--------|0-------|0-------|--------|0-------|--------|
                                      Shed feel alone..


VERSE 2:
G|--------|--------|--------|--------|--------|--------|--------|--------|
D|--0-0-0-|0-0-0-0-|--0-0-0-|0-0-0-0-|0-0-0-0-|--0-0-0-|0-0-0-0-|--0-0-0-|
A|--------|--------|--------|--------|--------|--------|--------|--------|
D|0-------|--------|0-------|--------|--------|0-------|--------|0-------|
  Julie was a lonely girl..

[ Tab from: http://www.guitartabs.cc/tabs/l/levellers/julie_btab_ver_2.html ]
G|--------|--------|--------|--------|--2---2-|--------|--2---2-|--------|
D|0-0-0-0-|--0-0-0-|0-0-0-0-|--0-0-0-|--------|0-0-0-0-|--------|0-0-0---|
A|--------|--------|--------|--------|----0---|--------|----0---|--------|
D|--------|0-------|--------|0-------|0-------|--------|0-------|--------|
                                      Shed feel alone..


  1&2&3&4& 1&2&3&4& 1&2&3&4& 1&2&3&4&
G|------2-|------0-|--------|0-------|
D|--4--2--|--4--0--|--0-2-2-|0-------|
A|-0--0---|-0------|--------|--------|
D|0-------|0---5---|0-------|5-------|


G|--------|--------|--------|--------|--------|--------|--------|--------|
D|--0-0-0-|0-0-0-0-|--0-0-0-|0-0-0-0-|--0-0-0-|0-0-0-0-|--0-0-0-|0-0-0-0-|
A|--------|--------|--------|--------|--------|--------|--------|--------|
D|0-------|--------|0-------|--------|0-------|--------|0-------|--------|
A hundred stairs..


G|--2---2-|--------|--2---2-|--------|--2-2---|--------|--2-2-2-|
D|--------|0-0-0-0-|--------|0-0-0-0-|--------|--0-0-0-|--------|
A|----0---|--------|----0---|--------|0-------|--------|0-------|
D|0-------|--------|0-------|--------|------2-|0-------|--------|
  Her dreams were..                   Julie waits..





G|--2-2---|--------|--2-2-2-|--2-2---|--------|--2-2-2-|
D|--------|--0-0-0-|--------|--------|--0-0-0-|--------|
A|--------|--------|0-------|--------|--------|0-------|
D|0-----2-|0-------|--------|0-----2-|0-------|--------|
  Julie hates..              Julie hates..


G|--2-2---|--0-0-0-|--------||
D|--------|--------|2-------||
A|--------|--------|0-------||
D|0-----2-|0-------|--------||
  Julie loves


TABBED BY JOHN

If you have any queries or bass tab I might be interested in please E-mail me.

John Hobson    100031.1306@compuserve.com


Comments