Levellers - Fifteen Years Chords & Tabs

 

Fifteen Years Chords & Tabs

Levellers Chords & Tabs

Version: 1 Type: Bass Tab 0 ratings
1 star 2 stars 3 stars 4 stars 5 stars
comments

Fifteen Years Bass Tab

-------------------------------------
LEVELLERS  -  FIFTEEN YEARS
---------------------------


INTRO:
G|--------|--------|--------|--------|--------|--------|--------|--------|
D|--------|--------|--------|--------|--------|--------|--------|--------|
A|0-R-0-R-|0-R-0-R-|--------|0-R-0-R-|0-R-0-R-|0-R-0-R-|--------|0-R-0-0-|
E|--------|--------|3-R-3-R-|--------|--------|--------|3-R-3-R-|--------|


G|--------|--------|--------|--------|--------|--------|--------|--------|
D|--------|--------|--------|--------|--------|--------|--------|--------|
A|0-R-0-R-|0-R-0-R-|--------|0-R-0-0-|0-R-0-R-|0-R-0-R-|--------|0-R-0-R-|
E|--------|--------|3-R-3-R-|--------|--------|--------|3-R-3-R-|--------|


VERSE 1:
G|--------|--------|--------|--------|--------|--------|--------|--------|
D|--------|--------|--------|--------|--------|--------|--------|--------|
A|0-R-0-R-|0-R-0-R-|--------|0-R-0-R-|0-R-0-R-|0-R-0-R-|--------|0-R-0-0-|
E|--------|--------|3-R-3-R-|--------|--------|--------|3-R-3-R-|--------|


G|--------|--------|--------|--------|--------|--------|--------|--------|
D|--------|--------|--------|--------|--------|--------|--------|--------|
A|0-R-0-R-|0-R-0-R-|--------|0-R-0-R-|0-R-0-R-|0-R-0-R-|--------|0-R-0-0-|
E|--------|--------|3-R-3-R-|--------|--------|--------|3-R-3-R-|--------|


G|--------|--------|--------|--------|--------|--------|--------|--------|
D|00000000|33333333|--------|--------|00000000|33333333|--------|--------|
A|--------|--------|00000000|--------|--------|--------|0-------|0---000-|
E|--------|--------|--------|33333333|--------|--------|--------|--------|


G|--------|--------|--------|--------|--------|--------|--------|--------|
D|--------|--------|--------|--------|--------|--------|--------|--------|
A|0-R-0-R-|0-R-0-R-|--------|0-R-0-0-|0-R-0-R-|0-R-0-R-|--------|0-R-0-R-|
E|--------|--------|3-R-3-R-|--------|--------|--------|3-R-3-R-|--------|


VERSE 2:
G|--------|--------|--------|--------|--------|--------|--------|--------|
D|--------|--------|--------|--------|--------|--------|--------|--------|
A|0-R-0-R-|0-R-0-R-|--------|0-R-0-R-|0-R-0-R-|0-R-0-R-|--------|0-R-0-0-|
E|--------|--------|3-R-3-R-|--------|--------|--------|3-R-3-R-|--------|

[ Tab from: http://www.guitartabs.cc/tabs/l/levellers/fifteen_years_btab.html ]
G|--------|--------|--------|--------|--------|--------|--------|--------|
D|--------|--------|--------|--------|--------|--------|--------|--------|
A|0-R-0-R-|0-R-0-R-|--------|0-R-0-R-|0-R-0-R-|0-R-0-R-|--------|0-R-0-0-|
E|--------|--------|3-R-3-R-|--------|--------|--------|3-R-3-R-|--------|


G|--------|--------|--------|--------|--------|--------|
D|00000000|33333333|--------|--------|00000000|33333333|
A|--------|--------|00000000|--------|--------|--------|
E|--------|--------|--------|33333333|--------|--------|



G|--------|--------|--------|--------|--------|--------|--------|--------|
D|--------|--------|2-R-2-R-|--------|--------|--------|2-R-2-R-|--------|
A|0---0-R-|0-R-0-R-|--------|3-R-3-R-|--------|0-R-0-R-|--------|3-R-3-R-|
E|--------|--------|--------|--------|3-R-3-R-|--------|--------|--------|


G|--------|--------|--------|--------|--------|--------|--------|--------|
D|--------|--------|--------|--------|--------|--------|--------|--------|
A|--------|--------|0-0-0-0-|0-0-0-0-|--------|0-0-0-0-|0-0-0-0-|0-0-0-0-|
E|33333333|33333333|--------|--------|3-3-3-3-|--------|--------|--------|


G|--------|--------|--------|--------|--------|--------|--------|--------|
D|--------|--------|--------|--------|--------|--------|--------|--------|
A|--------|0-0-0-0-|0-0-0-0-|0-0-0-0-|--------|0-0-0-0-|0-0-0-0-|0-0-0-0-|
E|3-3-3-3-|--------|--------|--------|3-3-3-3-|--------|--------|--------|


G|--------|--------|--------|--------|--------|--------|--------|--------|
D|--------|--------|00000000|33333333|--------|--------|00000000|33333333|
A|--------|000-0-0-|--------|--------|00000000|--------|--------|--------|
E|3-3-3-3-|--------|--------|--------|--------|33333333|--------|--------|


G|--------|--------|--------|--------|--------|--------|--------|--------|
D|--------|--------|00000000|33333333|--------|--------|00000000|33333333|
A|00000000|--------|--------|--------|00000000|--------|--------|--------|
E|--------|3-3-3-3-|--------|--------|--------|33333333|--------|--------|


G|--------||
D|--------||
A|0-------||
E|--------||


TABBED BY JOHN

If you have any queries or bass tab I might be interested in please E-mail me.

John Hobson    100031.1306@compuserve.com

Comments