Level 42 - Something About You Chords & Tabs

 

Something About You Chords & Tabs

Level 42 Chords & Tabs

Version: 1 Type: Bass Tab 0 ratings
1 star 2 stars 3 stars 4 stars 5 stars
comments

Something About You Bass Tab

Level 42 - Something About You

Everything is slapped with synth, but the verses are played fingerstyle.

INTRO:
G|---------------|--------------|--------------|
D|---------------|--------------|--------------|
A|---------0-2-3-|--3-0---------|--5-2---------|
E|-0--2--4-------|------3-0-----|------5-2-----|
B|---------------|----------1---|----------3---|

G|-----------------|---------------|--------------|--------------|
D|-----------------|---------------|--------------|--------------|
A|-----7-----------|---------0-2-3-|--3-0---------|--5-2---------|
E|--0----0--0---12\|-0--2--4-------|------3-0-----|------5-2-----|
B|-----------------|---------------|----------1---|----------3---|
[ Tab from: http://www.guitartabs.cc/tabs/l/level_42/something_about_you_btab.html ]
VERSE:
G|-----------------|-----------------|-----------------|-----------------|
D|*----------------|-----------------|-----------------|----------------*| play 4 times
A|-77--7--777---75-|-44--4--444---24-|-55--5--555---54-|-22--2--222------|
E|*----------------|-----------------|-----------------|----------------*|
B|-----------------|-----------------|-----------------|-----------------|

PRE-CHORUS/CHORUS:
G|-----------------|---------------|--------------|--------------|
D|*----------------|---------------|--------------|-------------*| play 2 times
A|-----7-----------|---------0-2-3-|--3-0---------|--5-2---------|
E|*-0----0--0---12\|-0--2--4-------|------3-0-----|------5-2----*|
B|-----------------|---------------|----------1---|----------3---|

CHORUS: repeat PRE-CHORUS
VERSE: repeat VERSE
PRE-CHORUS: repeat PRE-CHORUS, but play nothing during the last two bars at
the first time, and also play nothing during the first bar at the 2nd time.
CHORUS: repeat PRE-CHORUS, but play nothing during the first bar at the first
time.
SOLO: repeat PRE-CHORUS
OUTRO: repeat PRE-CHORUS 2 times, then fade out.
Comments