Letters To Cleo - I Want You To Want Me Chords & Tabs

 

I Want You To Want Me Chords & Tabs

Letters To Cleo Chords & Tabs

Version: 2 Type: Tab 0 ratings
1 star 2 stars 3 stars 4 stars 5 stars
comments

I Want You To Want Me Tab

Artist:Letters To Cleo
Song:I Whant You To Whant Me(10 things I hate about you soundtrack)
Tabbed by: Eric Morandeau


Intro

-9---------3--5-----
-11--5--3--5--7-----
-11--7--5--5--7-----
-----7--5-----------
--------------------
--------------------

Riff-1
--------3------
--5--3--5------
--7--5--5------
--7--5---------
---------------
---------------

Riff-2
------------------
--9--5--3---------
--7--7--5---------
--7--7--5---------
------------------
------------------

Riff-3
-----5--3-------------
--5--7--5--3----------
--7--7--5--5----------
--7--------5----------
----------------------
----------------------
[ Tab from: http://www.guitartabs.cc/tabs/l/letters_to_cleo/i_want_you_to_want_me_tab_ver_2.html ]
I want you to want me
I need you to need me
I'd love you to love me
I'm beggin' you to beg me
I want you to want me
I need you to need me
I'd love you to love me
I'll shine up my old brown shoes
Put on a brand new shirt
Get home early from work
If you say that you love me
Didn't I, didn't I, didn't I see you cryin'
Oh, didn't I, didn't I, didn't I see you cryin'
Feeling all alone without a friend you know you feel like dying
Oh, didn't I, didn't I, didn't I see you cryin'
I want you to want me
I need you to need me
I'd love you to love me
I'm beggin' you to beg me
I'll shine up my old brown shoes
Put on a brand new shirt
Get home early from work
If you say that you love me
Didn't I, didn't I, didn't I see you cryin'
Oh, didn't I, didn't I, didn't I see you cryin'
Feeling all alone without a friend you know you feel like dying
Oh, didn't I, didn't I, didn't I see you cryin'
I want you to want me
I need you to need me
I'd love you to love me
I'm beggin' you to beg me
I want you to want me
I want you to want me
I want you to want me
I want you to want me
Comments