Letters To Cleo - Cruel To Be Kind Chords & Tabs

 

Cruel To Be Kind Chords & Tabs

Letters To Cleo Chords & Tabs

Version: 2 Type: Tab 0 ratings
1 star 2 stars 3 stars 4 stars 5 stars
comments

Cruel To Be Kind Tab

   
-------------------------------------------------------------------------------
                 CRUEL TO BE KIND – LETTERS TO CLEO       
-------------------------------------------------------------------------------

By: TRISHA JONES

I’V SEEN LOTS OF TABS OF THIS SONG ON THE INTERNET AND THEY ARE ALL BY THE SAME
PERSON AND THEY HAVE DONE IT IN THE WRONG KEY, I DUNNO IF THIS IS NE BETTER ………
HOPE SO. I HAVENT BEEN PLAYIN VERY LONG SO I DUNO THE NAME OF SUM OF THE CHORDS I
CAME UP WITH…SORRY.
[ Tab from: http://www.guitartabs.cc/tabs/l/letters_to_cleo/cruel_to_be_kind_tab_ver_2.html ]
VERSE
   E	?   ?    ?
e|---------------2---------------------------------------------------
B|---------------4---------------------------------------------------
G|-1----8---6----4---------------------------------------------------
D|-2----9---7----4---------------------------------------------------
A|-2----9---7----2---------------------------------------------------
E|------7---5----2---------------------------------------------------


CHORUS

e|----2--4--4--------------------------------------------------------
B|----4--4--5--------------------------------------------------------
G|-6--4--5--6--------------------------------------------------------
D|-7--4--6--6--------------------------------------------------------
A|-7--2--6--4--------------------------------------------------------
E|-5--2--4--4--------------------------------------------------------
Comments