Letters To Cleo - Cruel To Be Kind Chords & Tabs

 

Cruel To Be Kind Chords & Tabs

Letters To Cleo Chords & Tabs

Version: 1 Type: Tab 0 ratings
1 star 2 stars 3 stars 4 stars 5 stars
comments

Cruel To Be Kind Tab

   
T1: khoo, khoo33@hotmail.com, Letters To Cleo, Cruel To Be Kind, ?/?/99

S1: This is another track taken from the 10 things i hate about
soundtrack
and its complete with solo's and all., Cruel To Be Kind 
Letters To Cleo
Off Soundtrack 10 Things I Hate About You
(Remake of Nick Lowe's cover)

Intro C Em F G
      C Em F G G
[ Tab from: http://www.guitartabs.cc/tabs/l/letters_to_cleo/cruel_to_be_kind_tab.html ]
verse
   C                        Em 
  Oh, I can't stand another heart-ache  Though you 
e|-0------------------------0--------------------------------------|
B|-1------------------------0--------------------------------------|
G|-0------------------------0--------------------------------------|
D|-2------------------------2--------------------------------------|
A|-3------------------------2--------------------------------------|
E|-x------------------------0--------------------------------------|
 
   F                    G                    C
  say you're my friend, I'm at my wits end   You say your love is 
e|-1--------------------3--------------------0---------------------|
B|-1--------------------3--------------------1---------------------|
G|-2--------------------0--------------------0---------------------|
D|-3--------------------0--------------------2---------------------|
A|-3--------------------2--------------------3---------------------|
E|-1--------------------3--------------------x---------------------|
  
  Em                  F  C  Em                                  F 
  bona fide, but that don't coincide   With the things that you do, 
e|-0------------------1--0--0-----------------------------------1--|
B|-0------------------1--1--0-----------------------------------1--|
G|-0------------------2--0--0-----------------------------------2--|
D|-2------------------3--2--2-----------------------------------3--|
A|-2------------------3--3--2-----------------------------------3--|
E|-0------------------1--x--0-----------------------------------1--|
        
        Em             F          G 
 when I ask you, to be nice - you say
e|------0--------------1----------3-3-3-3--------------------------|
B|------0--------------1----------3-3-3-3--------------------------|
G|------0--------------2----------0-0-0-0--------------------------|
D|------2--------------3----------0-0-0-0--------------------------|
A|------2--------------3----------2-2-2-2--------------------------|
E|------0--------------1----------3-3-3-3--------------------------|

Chorus F G Em Am x3
       G G G

Interlude
      C        Em       F        G
e|--------0------0---------1--------3------------------------------|
B|----0h1------0--------1--------3---------------------------------|
G|----0--------0--------1h2------3h4-------------------------------|
D|-----------------------------------------------------------------|
A|-----------------------------------------------------------------|
E|-----------------------------------------------------------------|

Bridge
    C       C       A       A
e|----------------------------0------------------------------------|
B|------------------------------2----------------------------------|
G|--------------------------------2--------------------------------|
D|-----------------------------------------------------------------|
A|-----------------------------------------------------------------|
E|-----------------------------------------------------------------|

Solo
   F         G          Em     Am
e|-8--8--8---10-10-10-x-7-7-7--12-12-12----------------------------|play
x3
B|-10-10-10--12-12-12-x-8-8-8--13-13-13----------------------------|
G|-10-10-10--12-12-12-x--------------------------------------------|
D|-----------------------------------------------------------------|
A|-----------------------------------------------------------------|
E|-----------------------------------------------------------------|

   G
e|-----------------------------------------------------------------|
B|----------------------8----------7---6---5---4-------------------|
G|-12b14---r12---9---------9--------8---7---6---5------------------|
D|------------------10--------10-----9---8---7---6-----------------|
A|-----------------------------------------------------------------|
E|-----------------------------------------------------------------|

This song is pretty simple to workout so you should have no problems
working it out.If you have any questions or suggestions please email me

at Khoo33@hotmail.com.

this is a work of khoo

Pls visit http://rubberband.cjb.net to see my bands homepage
You can find some tabs there too exclusively tabbed by myself.
Proud to be Malaysian too
Comments