Let It Burn - Cross My Heart Chords & Tabs

 

Cross My Heart Chords & Tabs

Let It Burn Chords & Tabs

Version: 1 Type: Tab 0 ratings
1 star 2 stars 3 stars 4 stars 5 stars
comments

Cross My Heart Tab

   
------------------------------------------------------------------------------- 
                             Let It Burn - Cross My Heart
------------------------------------------------------------------------------- 
By: Steve karpsmom@att.net 
http://www.angelfire.com/punk3/punktabs0 

_ -palm mute 
/ - slide up neck 
> - continued 
* - harmonic 

most chords are exact number of strums 

Gtr. A intro 
e|----------| 
B|----__----| 
G|-10-10-10-| 
D|-10-10-10-| 
A|--8--8--8-| 
E|----------| 

Gtr. B intro 
e|-about 7X-|----------------13----------13-------| 
B|-----_----|-------------13----13-13-13----16-14/| 
G|--10-8-10-|----13----13-------------------------| 
D|--10-8-10-|-15----15----------------------------| 
A|---8-6--8-|-------------------------------------| 
E|----------|-------------------------------------| 

Gtr. A verse Gtr. A chorus 
e|-part 1a----|-pt 1b|------------| 
B|------------|------|------------| 
G|-8-10-10-10-|---6--|-10-8-6---8-| 
D|-8-10-10-10-|-6-6--|-10-8-6-8-8-| 
A|-6--8--8--8-|-6-4--|--8-6-4-8-6-| 
E|------------|-4----|--------6---| 

Gtr. B verse Gtr. B chorus 
e|-part 1a----|-pt 1b|------------| 
B|------------|------|------------| 
G|-8-10-10-10-|---6--|-10-8-6---8-| 
D|-8-10-10-10-|-6-6--|-10-8-6-8-8-| 
A|-6--8--8--8-|-6-4--|--8-6-4-8-6-| 
E|------------|-4----|--------6---| 
[ Tab from: http://www.guitartabs.cc/tabs/l/let_it_burn/cross_my_heart_tab.html ]
2nd verse part 1a is part 1 of the Gtr. B intro instead 


Gtr. A breakdown 
e|-----X2----------|let notes ring---|-------|---|--X3-----4-4-|-----4-4-----> 
B|-----------------|throughout-------|-----_-|-7/|---------4-3-|-----4-3-----> 
G|-----8-8-9-9-11--|-8-------8-------|8-11-8-|-6/|-_______-----|-___---------> 
D|-6-6-8-8-9-9-11--|---66666---66666-|6--9-6-|---|-6-4-2-4-----|-6-4-----2-4-> 
A|-6-6-6-6-7-7--9--|-----------------|-about-|---|-6-4-2-4-----|-6-4-----2-4-> 
E|-4-4-------------|-------X2--------|---2X--|---|-4-2-0-2-----|-4-2-----0-2-> 

>---------|-------------|then do |---| 
>---------|-___________-|-Gtr. A-|---| 
>---------|---7---8---9-|-intro--|---| 
>-6-4-2-4-|-6-7-7-8-8-9-|-a few--|-3-| 
>-6-4-2-4-|-6-5-7-6-8-7-|-times--|-3-| 
>-4-2-0-2-|-4---5---6---|--------|-1-| 

Gtr. B Breakdown 
e|-X2 2nd time with|----X3---|-----|-------------|------------|-------------| 
B|--palm mutes-----|---------|-----|-------------|------------|-___________-| 
G|-----8-8-9-9-11--|-_______-|-2-4-|-_______-2-4-|------------|---7---8---9-| 
D|-6-6-8-8-9-9-11--|-6-4-2-4-|-----|-6-4-2-4-2-4-|----6-4-2-4-|-6-7-7-8-8-9-| 
A|-6-6-6-6-7-7--9--|-6-4-2-4-|-----|-6-4-2-4-----|----6-4-2-4-|-6-5-7-6-8-7-| 
E|-4-4-------------|-4-2-0-2-|-----|-4-2-0-2-----|-4*-4-2-0-2-|-4---5---6---| 

then do gtr. A intro a few times, then end on this chord 

e|----| 
B|----| 
G|-10-| 
D|-10-| 
A|--8-| 
E|----|
Comments