Lessons - Solos Chords & Tabs

 

Solos Chords & Tabs

Lessons Chords & Tabs

Version: 2 Type: Tab 0 ratings
1 star 2 stars 3 stars 4 stars 5 stars
comments

Solos Tab

#----------------------------------PLEASE NOTE---------------------------------#
#This file is the author's own work and represents their interpretation of the #
#song. You may only use this file for private study, scholarship, or research. #
#------------------------------------------------------------------------------##
Ayeh Guitarists!

Since I'm bored lately, I thought I'd transcribe some other solo pieces
from Megadeth (Yes, again. It's their 'fault', not mine...)

Explanations:  P - pull off
               H - hammer on
               B - bend
               R - release bend
               / - slide up
               \ - slide down
               ^ - upstroke (the pick moves towards the sky. "Pull")
               v - downstroke (the pick moves towards the ground. "Push")
             (5) - let ring the indicated note, but don't pick

BE CAREFUL WITH THE STROKE DIRECTION!!!

===================================

FIRST: A piece from the second solo of 99 Ways to Die 
      (Megadeth, The Beavis and Butt-head Experience)

Note: Very fast!!!

    v  ^  v  ^  v  ^  v  ^    v  ^  v  ^  v  ^  v  ^
E|-20-15-17----15----------|-15----------15----------|
B|----------18----18-17-18-|----18-17-15----15-17----|
G|-------------------------|----------------------18-|
D|-------------------------|-------------------------|
A|-------------------------|-------------------------|
E|-------------------------|-------------------------|

    v  ^  v  ^  v  ^  v  v    ^     v  ^  v  ^     v  ^  ^
E|-------------------------|-------------------------------|
B|-15----------15-------18-|-------20-18-20-------20-18----|
G|----18-17-18----18-15(15)|-18H19----------18H19-------19-|
D|-------------------------|-------------------------------|
A|-------------------------|-------------------------------|
E|-------------------------|-------------------------------|

    v
E|-19B21-------------------|-------------------------------|
B|-------------------------|-------------------------------|
G|-------------------------|-------------------------------|
D|-------------------------|-------------------------------|
A|-------------------------|-------------------------------|
E|-------------------------|-------------------------------|

===================================

SECOND: A piece from Skin o' my Teeth
       (Megadeth, Countdown to Extinction)

Note: Play triplets!

    ^       ^   v   v   ^    v   ^   ^   v   ^   v
E|-17-P12----------12--15-|-14--12------12--15--12-|
B|---------14--15---------|---------15-------------|
G|------------------------|------------------------|
D|------------------------|------------------------|
A|------------------------|------------------------|
E|------------------------|------------------------|

    ^       ^   v   ^   v    ^   v   ^   v   ^   v
E|-19-P12------12---------|------------------------|
B|---------15------15--13-|-----13--15--16--15--13-|
G|------------------------|-14---------------------|
D|------------------------|------------------------|
A|------------------------|------------------------|
E|------------------------|------------------------|
[ Tab from: http://www.guitartabs.cc/tabs/l/lessons/solos_tab_ver_2.html ]
    ^   v   ^   v        ^  v    ^   v   ^
E|------------------------|------------------------|
B|-----13--15--12H13P12---|-12---------------------|
G|-14-------------------14|-----14--12--11H12P11P9-|
D|------------------------|------------------------|
A|------------------------|------------------------|
E|------------------------|------------------------|

   v
E|------------------------|------------------------|
B|------------------------|------------------------|
G|-9\5--------------------|------------------------|
D|------------------------|------------------------|
A|------------------------|------------------------|
E|------------------------|------------------------|


Some nanosecundums later...


E|-------------------------|----------------------------|
B|-15H17P15P12-15H17-14B15-|R14-12-14\12-10H12H14-12-10-|
G|-------------------------|----------------------------|
D|-------------------------|----------------------------|
A|-------------------------|----------------------------|
E|-------------------------|----------------------------|


E|---------------------------|-------------------------|
B|-10H12H14-12-10-12\10-9-10-|-------------------------|
G|---------------------------|-11----------------------|
D|---------------------------|-------------------------|
A|---------------------------|-------------------------|
E|---------------------------|-------------------------|


===================================

THIRD: A piece from High Speed Dirt
      (Megadeth, Countdown to Extinction)

Note: Play triplets!


E|-17-P16-P15-P14-H15-H16-|-17-P12------15-P12-----|
B|------------------------|---------14----------14-|
G|------------------------|------------------------|
D|------------------------|------------------------|
A|------------------------|------------------------|
E|------------------------|------------------------|


E|-14-P12--------------12-|------------------------|
B|---------15--14--15-----|-15-P14-P12--14-\-------|
G|------------------------|------------------------|
D|------------------------|------------------------|
A|------------------------|------------------------|
E|------------------------|------------------------|


E|------------------------|------------------------|
B|-13------12-------------|------------------------|
G|-----14------12--14--12-|-11--12--14--12--11-----|
D|------------------------|---------------------14-|
A|------------------------|------------------------|
E|------------------------|------------------------|

   __________               __________
   |  |  |  |               |  |  |  |
E|------------------------|------------------------|
B|------------------------|------------------------|
G|------------------------|------------------------|
D|-16P15P14----14-H16-P14-|-14P13P12----14---------|
A|----------17------------|----------15-----15-B16-|
E|------------------------|------------------------|


E|------------------------|
B|------------------------|
G|------------------------|
D|------------------------|
A|-12---------------------|
E|------------------------|

===================================

Watch out for the next part!
(Hope I can make enough money to buy a new electric guitar...
It's really hard to transcribe solos with a classic guitar!)

Send your opinions, questions, used guitars or even dislikes to:
 
                    rocker@hal2000.hal.vein.hu
               or   nagyd@almos.vein.hu

July '94, Hungary
Comments