Less Than Jake - Who Holds The Power Ring Chords & Tabs

 

Who Holds The Power Ring Chords & Tabs

Less Than Jake Chords & Tabs

Version: 1 Type: Bass Tab 0 ratings
1 star 2 stars 3 stars 4 stars 5 stars
comments

Who Holds The Power Ring Bass Tab

WHO HOLDS THE POWER RING
LESS THAN JAKE
SMOKE SPOT 7"

INTRO & VERSE
----------------------------------
-----7--7--7-----9--9---767-
---0--0--0---777---7---------
-0--------------------------------
[ Tab from: http://www.guitartabs.cc/tabs/l/less_than_jake/who_holds_the_power_ring_btab.html ]
CHOURS:
-------------------------------976----
----457---------------679--------7--
-5-----------457---7-----------------
-----------5-----------------------------

---------------------------------
-----457-----------------------
-5------------457-7-754----
------------5-----------------7-

SAX SOLO:
-----------------------------------
-----------------------------------
----2-3-5-----4-5-7-----------
--3----------5-------------------

STEVE MARTIN

Comments