Less Than Jake - Were All Dudes Chords & Tabs

 

Were All Dudes Chords & Tabs

Less Than Jake Chords & Tabs

Version: 2 Type: Bass Tab 0 ratings
1 star 2 stars 3 stars 4 stars 5 stars
comments

Were All Dudes Bass Tab

   
Were All Dudes - Less Than Jake
Good Burger Soundtrack
Tabbed by Joshuef -
corrections questions, hail me as your emperor:- joshuef@imaterrorist.com

no1 else had done it, i wanted 2 play it - here it is
Intro x4		     end 1 x3  end 2 into verse

G---------------------------*--------*------------|
D-----------4--------6------*7-5-----*------------|
A----4---55---5---77----7---*---7-5-*-555555-7----|
E-55--5---------------------*--------*------------|

Verse x4

G-----------------------------------|
D--------------4-7-4---99-7-6-------|
A---4-----4--5-------7--------------|
E-5---555---------------------------|

Chorus x2

G-----------------------------------|
D-----------4h5p4----6h7------------|
A----4h5--55-------77------777-54---|
E-55--------------------------------|

Verse x4

Chorus x4


Bridge
[ Tab from: http://www.guitartabs.cc/tabs/l/less_than_jake/were_all_dudes_btab_ver_2.html ]
Start of bridge
G------------------|
D-----------4------|
A----4---55---5-77-|
E-55---5-----------|

each variation played once after start

 end 1        end 2         end 3       end 4 (slide down)
G------------|-------------|-----------|--------|
D---7-5-4----|---5h7p5-----|-----4-5-7-|-7-7/---|
A-7------7---|-5-------7-5-|-5h7-------|--------|
E------------|-------------|-----------|--------|

REST

Verse x3 then A-7


Chorus x2


Breakdown

G-----------------------------------|
D-----------------7-5-4-------------|
A--7-(7)----4---5-------7---5-4-5---|
E--------55---5---------------------|

Breakdown cont...

G----------------------------------------|
D---------------7-5-4--------------------|
A-5-4-5-7-----4-------7--5-4-5-7-7777----|
E----------5-----------------------------|

Chorus x4

End on A - 7
Comments