Less Than Jake - The Science Of Selling Yourself Short Chords & Tabs

 

The Science Of Selling Yourself Short Chords & Tabs

Less Than Jake Chords & Tabs

Version: 3 Type: Tab 0 ratings
1 star 2 stars 3 stars 4 stars 5 stars
comments

The Science Of Selling Yourself Short Tab

   
-------------------------------------------------------------------------------
                             The Science of Selling Yourself Short - Less Than Jake
-------------------------------------------------------------------------------
Tabbed by: Pmdean95
E-mail: Pmdean95@gmail.com

Tuning: Standard

Although this song sounds like it's got a lot going on, there's really not. It's
actually very basic. (Keep in mind that this band has horns as well as keyboard which 
both at
times copy the guitar's rhythm sounding very similar to guitar when it's actually not 
guitar while the guitar is doing something different)

Intro: (skank chords)
e|--5-----5-----5------8-----|
B|--6-x2--5-x2--6-x2--10-x2--|
G|--5-----5-----7-----10-----|
D|---------------------------|
A|---------------------------|
E|---------------------------| x2


Verse: (skank chords)
e|--5-----5-----5------8-----|
B|--6-x2--5-x2--6-x2--10-x2--|
G|--5-----5-----7-----10-----|
D|---------------------------|
A|---------------------------|
E|---------------------------| x4

[ Tab from: http://www.guitartabs.cc/tabs/l/less_than_jake/the_science_of_selling_yourself_short_tab_ver_3.html ]
Pre-Verse:
e|------------------------------------------------------------------|
B|------------------------------------------------------------------|
G|------------------------------------------------------------------|
D|--------7---------------7----------------------25-----------------|
A|--5--558--------7-5--558--------7-------5-3--33---------5-3---3---|
E|----------5--558----------5--558--3--336----------3--336----------| x1
    .  ...  .  ...  .  ...  .  ...  .  ...  .  ...  .  ...


Chorus: (skank chords)
e|--6-----5------8-----|
B|--6-x2--6-x2--10-x4--|
G|--7-----5-----10-----|
D|---------------------|
A|---------------------|
E|---------------------| x4


(REPEAT VERSE, PRE-VERSE, AND CHORUS)


Bridge: (skank chords)
e|--5-----5-----6------8-----|
B|--6-x4--5-x4--6-x4--10-x4--|
G|--7-----5-----7-----10-----|
D|---------------------------|
A|---------------------------|
E|---------------------------| x2


(REPEAT CHORUS)


Outro: (skank chords)
e|--5-----5-----5------8-----|
B|--6-x2--5-x2--6-x2--10-x2--|
G|--5-----5-----7-----10-----|
D|---------------------------|
A|---------------------------|
E|---------------------------| x4


************************************

| .   palm mute note
| /   slide up
| \   slide down
| h   hammer-on
| p   pull-off
| ~   vibrato
| +   harmonic
| x   Mute note
| b   Bend
| pb  Pre-bend
| br  Bend release
| pbr Pre-bend release
| brb Bend release bend

************************************
Comments