Less Than Jake - The Ghosts Of Me And You Chords & Tabs

 

The Ghosts Of Me And You Chords & Tabs

Less Than Jake Chords & Tabs

Version: 2 Type: Tab 0 ratings
1 star 2 stars 3 stars 4 stars 5 stars
comments

The Ghosts Of Me And You Tab

   
-------------------------------------------------------------------------------
	          Ghosts of Me and You - Less Than Jake 
-------------------------------------------------------------------------------
Album: Anthem
Tabbed by: GD_GC
Tuning: Standard
Email: mngoalie92@yahoo.com

This song only has one tab, so I thought the site needed another.

Intro/Main Riff (Guitar 1):
e|-------------------------------------------------------|
B|-------------------------------------------------------|
G|--999999999999-999-999-999-99--111111-1111--5-55-------|
D|--XXXXXXXXXXXX-XXX-XXX-XXX-XX---X-X-X--X-X--X-XX-5-55--|
A|--777777777777-777-777-777-77---9-9-9--9-9--3-33-X-XX--|
E|-------------------------------------------------3-33--|

Guitar 2:
e|-------------------------------------------------------|
B|-------------------------------------------------------|
G|---------------999-999-999-99--111111-1111--5-55-------|
D|---------------999-999-999-99--111111-1111--5-55-5-55--|
A|---------------777-777-777-77---9-9-9--9-9--3-33-5-55--|
E|-------------------------------------------------3-33--|

Verse (Both Guitars):
e|---------------------------------------------------------------------------|
B|---------------------------------------------------------------------------|
G|---------------------------------------------------------------------------|
D|--99999999999999999999999-666666666666666666666666-444444444444444444444444|
A|--77777777777777777777777-444444444444444444444444-222222222222222222222222|
E|---------------------------------------------------------------------------|
    *********************** ************************ ************************

e|------------------------------------|
B|------------------------------------|
G|-----9-------9-------9-------9-9----|
D|---9---9---9---9---9---9---9---9----|
A|--7-------7-------7-------7----7----|
E|------------------------------------|
[ Tab from: http://www.guitartabs.cc/tabs/l/less_than_jake/the_ghosts_of_me_and_you_tab_ver_2.html ]
Pre-Chorus (Guitar 1):
e|---------------------------|               e|------------------------------------|
B|---------------------------|               B|------------------------------------|
G|--66-X------99-99-9-9------| x3, then play G|--1111111111111111-1414141414141414-|
D|--XX-X-77-X-XX-XX-X-X------|               D|---X-X-X-X-X-X-X-X--X-X-X-X-X-X-X-X-|
A|--44-X-XX-X-77-77-7-7------|               A|---9-9-9-9-9-9-9-9-1212121212121212-|
E|-------55-X----------------|               E|------------------------------------|

Guitar 2:
e|----------------------------|              e|------------------------------------|
B|----------------------------|              B|------------------------------------|
G|--66-X------99-99-9-9-------|              G|--1111111111111111-1414141414141414-|
D|--66-X-77-X-99-99-9-9-------|x3, then play D|--1111111111111111-1414141414141414-|
A|--44-X-77-X-77-77-7-7-------|              A|---9-9-9-9-9-9-9-9-1212121212121212-|
E|-------55-X-----------------|              E|------------------------------------|

Chorus Part 1 (Guitar 1):
e|--------------------------------------|
B|--------------------------------------|
G|--99-9999-22-9999-66-9999-2-9999------|
D|--XX-XXXX-XX-XXXX-XX-XXXX-X-XXXX------|
A|--77-7777-00-7777-44-7777-0-7777------|
E|--------------------------------------|

Guitar 2:
e|--------------------------------------|
B|--------------------------------------|
G|--99------22------66------2-----------|
D|--99------22------66------2-----------|
A|--77------00------44------0-----------|
E|--------------------------------------|
Then, play the chorus again but play the chords more and have guitar 2 add scratches
between chords.  Thats pretty much the whole song, listen to it to figure out the
order.  Any problems or corrections, Email me.  Peace Out ;)

| /  slide up
| \  slide down
| h  hammer-on
| p  pull-off
| ~  vibrato
| +  harmonic
| x  Mute note
| *  Palm Mute
===============================================================================
Comments