Less Than Jake - The Ghosts Of Me And You Chords & Tabs

 

The Ghosts Of Me And You Chords & Tabs

Less Than Jake Chords & Tabs

Version: 1 Type: Tab 0 ratings
1 star 2 stars 3 stars 4 stars 5 stars
comments

The Ghosts Of Me And You Tab

#----------------------------------PLEASE NOTE--------------------------------#
#This file is the author's own work and represents their interpretation of the#
#song. You may only use this file for private study, scholarship, or research.#
#-----------------------------------------------------------------------------#
#-- File created with Instab - http://www.pconline.com/~smcarey/instab.html --#
#-----------------------------------------------------------------------------#

Author/Artist: less than jake
Title: the ghosts of me and you
Transcribed by: paul 
Email: aint_life_a_bitc_h@hotmail.com

-|-------|-------------------------------------------------------|-----------
-|-------|-------------------------------------------------------|-----------
-|-9-----|---999999999999---11111111111111----777----------------|-----------
-|-x-x16-|---xxxxxxxxxxxx----x-x-x-x-x-x-x----xxx--7777----------|-----------
-|-7-----|---777777777777----9-9-9-9-9-9-9----555--xxxx----------|-----------
-|-------|-----------------------------------------5555----------|-----------
                                                                              
[ Tab from: http://www.guitartabs.cc/tabs/l/less_than_jake/the_ghosts_of_me_and_you_tab.html ]
-|--------------------------------00------0----0-----00-----|----------------
-|--------------------------------00------0----0-----00-----|----------------
-|-9---------------------------66-----666---66---666--------|----------------
-|-9x36----11--------9---------77-----777---77---777--------|----------------
-|-7-------11x16-----9-x16-----77-----777---77---777--------|----------------
-|----------9--------7---------55-----555---55---555--------|----------------
   palm mute verse             !not palm muted!                               

-|----------------------|--------------------------------------|-------------
-|----------------------|--------------------------------------|-------------
-|-5/6-x---------8/99999|---1111111111111111-1414141414141414--|-------------
-|-5/6-x-6/7--x--8/99999|---1111111111111111-1414141414141414--|-------------
-|-3/4-x-6/7--x--6/77777|---9999999999999999-1212121212121212--|-------------
-|-------4/5--x---------|--------------------------------------|-------------
   pre chorus             repeat 3 times then!                                

-|--------------------------------------------------|------------------------
-|--------------------------------------------------|------------------------
-|-99--9999------9999---1111--9999--1414--9999------|------------------------
-|-99--xxxx-77---xxxx---1111--xxxx--1414--xxxx------|------------------------
-|-77--7777-77---7777----9-9--7777--1212--7777------|------------------------
-|----------55--------------------------------------|------------------------
                                                                              

-|-----------------------|------|--------------------------------------------
-|-----------------------|------|--------------------------------------------
-|-9----11---14----------|-----9|--------------------------------------------
-|-9----11---14---12-----|-----9|--------------------------------------------
-|-7-----9---14---12-----|-----7|--------------------------------------------
-|----------------10-----|------|--------------------------------------------
 (no rhythm shown sorry)             for middle let that chord ring
Comments